Gillian Welch - I Wanna Sing That Rock N Roll Chords & Tabs

 

I Wanna Sing That Rock N Roll Chords & Tabs

Gillian Welch Chords & Tabs

Version: 1 Type: Tab 0 ratings
1 star 2 stars 3 stars 4 stars 5 stars
comments

I Wanna Sing That Rock N Roll Tab

   
I want to sing the rock  and roll
Written by Gillian Welch
As performed by Gillian Welch and David Rawlings on Down From The Mountain
Tabbed By Ian ( ickis@netnet.net for questions, comments, etc)


Capo@1
Chords used
G=320003
C=032010
D=XX0323
Em=022000

G               C        G                    C          D             G
1  I wanna sing that rockn roll iwanna electrify my soul cause everbody 
   C                                                         G
been makin a shout so big and loud been drowin me out, i wanna sing 
C               G
that rockn roll

 Em                      C    G                      C              D
2: I wanna reach that glory land, i wanna shake my saviors hand and i 
G        C          G                    C       D                   G   
wanna sing that rockn roll i wanna electrify my soul cause everybod
   C                                                           G 
been makin a shout so big and loud been drownin me out iwanna sing 
    C         G
that rockn roll
[ Tab from: http://www.guitartabs.cc/tabs/g/gillian_welch/i_wanna_sing_that_rock_n_roll_tab.html ]
     Em   		G				C       D
3: I been a travelin near and far but i won’t lay down my old guitar 
    G          	C     G 		C 		D	G
and iwanna sing that rock n roll i wanna electrify my soul everyone 
        C						    G
been makin a shout so big and loud been drowin me out, I wanna sing 
        C           G
that rockn roll

Solo Dave Rawlings






E----------------------5-4-0-3-2-0-1-2---------2-2-2-2-2-----------------
B----5-3/-----0--------------------------2/4-0-3-3-3-3-3-----------------
G-------------------------------------------------2-4-5-4-2--------------
D------------------------------------------------------------------------
A----------------------------------------------------------------0-2-3-4-
E------------------------------------------------------------------------

E--------------------3/2-----------------------------------3-3-3-2-0-----
B--------------------3/2---------------0------0-------0---------------2/4
G--------------------4/3------------3------3--------3--------------------
D--0-2-3-4---------5/4---------------------------------------------------
A--------------------5/4-------3---2-------------------------------------
E-------------------------------4---3------------------------------------

E
B---0
G----
D----
A---2
E---3
repeat 3

I wanna sing that rocknroll

PICK STRUM
Comments