Gilberto Joao - Desafinado Chords & Tabs

 

Desafinado Chords & Tabs

Gilberto Joao Chords & Tabs

Version: 1 Type: Chords 0 ratings
1 star 2 stars 3 stars 4 stars 5 stars
comments

Desafinado Chords

   
#----------------------------------PLEASE NOTE--------------------------------#
#This file is the author's own work and represents their interpretation of the#
#song. You may only use this file for private study, scholarship, or research.#
#-----------------------------------------------------------------------------#

Date: Thu, 2 Apr 1998 14:38:49 -0500
!From: amh 
Subject: TAB: A.C. Jobim/desafinado.tab

Desafinado (Off Key)

by Antonio Carlos Brasiliero de Almeida Jobim (a.k.a. Tom Jobim)

as performed on "Getz/Gilberto" by Stan Getz and Joao Gilberto featuring
Antonio Carlos Jobim; Verve V6-8545, 1963.

Transcribed by Andy Holaday March-April 1998


Style notes:

The song is in the bossa nova style; the guitar is played finger style; the
language is Portuguese.  The following basic two measure rhythm pattern is
prevalent throughout the song:

 "X"               "Y"
  1 + 2 + 3 + 4 +   1 + 2 + 3 + 4 +
|-----------------|-----------------|
|(X)--X-----X---Y-|-----Y-----Y---Y-|
|(X)--X-----X---Y-|-----Y-----Y---Y-|
|(X)--X-----X---Y-|-----Y-----Y---Y-|
|(X)--X-----X---Y-|-----Y-----Y---Y-|
|-----------------|-----------------|

The chord for any given measure is often (but not always) played on the
last upbeat of the preceding measure, as the "Y" chord above.  For the sake
of clarity however the chords are shown above the whole (or nearly so)
measure.  Feel free to vary this rhythm as feels good to you.  Key rhythms
are denoted.

For extra flare you can alternate root and fifth in the bass on the first
and third downbeats while you play the chords on the rhythm pattern above.

And for those who don't know, "D.S. al coda" (at the end of the piece)
means return to the "Signe" (in the third measure) and repeat until the "To
coda" instruction is reached, then jump to the section labeled "Coda" and
finish the song.  The lyrics are sung only the first time through.


tempo: quarter=144

                                      Signe.
  DM7               DM7               DM7               DM7
|-----------------|-----------------|-----------------|-----------------|
|-2---------------|-2---------------|-2---------------|-2---------------|
|-2---------------|-2---------------|-2---------------|-2---------------|
|-0---------------|-0---------------|-0---------------|-0---------------|
|-0---------------|-0---------------|-0---------------|-0---------------|
|-----------------|-----------------|-----------------|-----------------|
                                      Se voce dis-  

  E7                E7                A9                A7
|-----------------|-----------------|-----------------|-----------------|
|-0---------------|-0---------------|-5---------------|-5---------------|
|-1---------------|-1---------------|-4---------------|-6---------------|
|-0---------------|-0---------------|-5---------------|-5---------------|
|-2---------------|-2---------------|-----------------|-----------------|
|-0---------------|-0---------------|-5---------------|-6---------------|
  -fino amor                     

  C6                B7 b9             Em7               A#m
|-----------------|-----------------|-----------------|-----------------|
|-----------------|-----------------|-----------------|-----------------|
|-5---------------|-5---------------|-7---------------|-6---------------|
|-7---------------|-7---------------|-5---------------|-8---------------|
|-7---------------|-----------------|-7---------------|-----------------|
|-----------------|-7---------------|-----------------|-6---------------|
                             

  B7                Cm6               E7                E7
|-----------------|-----------------|-----------------|-----------------|
|-7---------------|-8---------------|-0---------------|-0---------------|
|-8---------------|-8---------------|-1---------------|-1---------------|
|-7---------------|-7---------------|-0---------------|-0---------------|
|-----------------|-----------------|-2---------------|-2---------------|
|-7---------------|-8---------------|-0---------------|-0---------------|
  

  D# M7             D#6               D M7              D M7
  1 + 2 + 3 + 4 +   1 + 2 + 3 + 4 +
|-----------------|-----------------|-----------------|-----------------|
|-3---3---3-----1-|-1-1---1---1---2-|-2---------------|-2---------------|
|-0---0---0-----0-|-0-0---0---0---2-|-2---------------|-2---------------|
|-1---1---1-----1-|-1-1---1---1---0-|-0---------------|-0---------------|
|-----------------|---------------0-|-0---------------|-0---------------|
|-----------------|-----------------|-----------------|-----------------|
                                     Se voce in-       -siste em clas-

  E7                E7                A9                A7
|-----------------|-----------------|-----------------|-----------------|
|-0---------------|-0---------------|-5---------------|-5---------------|
|-1---------------|-1---------------|-4---------------|-6---------------|
|-0---------------|-0---------------|-5---------------|-5---------------|
|-2---------------|-2---------------|-----------------|-----------------|
|-0---------------|-0---------------|-5---------------|-5---------------|
  -sificar                   

  C6                B7 b9             Em7               A#m
  1 + 2 + 3 + 4 +   1 + 2 + 3 + 4 +
|-----------------|-----------------|-----------------|-----------------|
|-----------------|-----------------|-----------------|-----------------|
|-5---5---5-----5-|-5-5---5---5---7-|-7---------------|-5---------------|
|-7---7---7-----7-|-7-7---7---7---5-|-5---------------|-7---------------|
|-7---7---7-----7-|---------------7-|-7---------------|-----------------|
|-----------------|-7-7---7---7-----|-----------------|-5---------------|
  
[ Tab from: http://www.guitartabs.cc/tabs/g/gilberto_joao/desafinado_crd.html ]
  Bm7               C# m7             F# M7             F +5
|-----------------|-----------------|-----------------|-----------------|
|-----------------|-----------------|-----------------|-----------------|
|-7---------------|-9---------------|-6---------------|-6---------------|
|-7---------------|-9---------------|-8---------------|-7---------------|
|-----------------|-----------------|-9---------------|-8---------------|
|-7---------------|-9---------------|-----------------|-----------------|
 

  E6                D#7               F# M7             D# m7
|-----------------|-----------------|-----------------|-----------------|
|-----------------|-----------------|-2---------------|-4---------------|
|-6---------------|-6---------------|-3---------------|-6---------------|
|-6---------------|-5---------------|-3---------------|-4---------------|
|-7---------------|-6---------------|-----------------|-----------------|
|-----------------|-----------------|-2---------------|-6---------------|
  muito natural - - - - - - -     O   
                                                        pres-

  G# m7             C#9               A# m7             D#7 b5
|-----------------|-----------------|-----------------|-----------------|
|-4---------------|-4---------------|-6---------------|-4---------------|
|-4---------------|-4---------------|-6---------------|-6---------------|
|-4---------------|-3---------------|-6---------------|-5---------------|
|-----------------|-4---------------|-----------------|-----------------|
|-4---------------|-----------------|-6---------------|-5---------------|
  

  G# m7             C#7               A M7              F# m7
|-----------------|-----------------|-----------------|-----------------|
|-4---------------|-2---------------|-5---------------|-5---------------|
|-4---------------|-4---------------|-6---------------|-6---------------|
|-4---------------|-3---------------|-6---------------|-4---------------|
|-----------------|-4---------------|-----------------|-4---------------|
|-4---------------|-----------------|-5---------------|-----------------|


  Bm7               E9                A sus4            C# m6
|-----------------|-----------------|-----------------|-----------------|
|-7---------------|-7---------------|-8---------------|-8---------------|
|-7---------------|-7---------------|-7---------------|-8---------------|
|-7---------------|-6---------------|-7---------------|-7---------------|
|-----------------|-7---------------|-----------------|-----------------|
|-7---------------|-----------------|-5---------------|-8---------------|


  E9                D# M7             D M7              D M7
|-----------------|-----------------|-----------------|-----------------|
|-7---------------|-8---------------|-2---------------|-2---------------|
|-7---------------|-7---------------|-2---------------|-2---------------|
|-6---------------|-5---------------|-0---------------|-0---------------|
|-7---------------|-6---------------|-0---------------|-0---------------|
|-----------------|-----------------|-----------------|-----------------|
  

  E7                E7                A9                A7
|-----------------|-----------------|-----------------|-----------------|
|-0---------------|-0---------------|-5---------------|-5---------------|
|-1---------------|-1---------------|-4---------------|-6---------------|
|-0---------------|-0---------------|-5---------------|-5---------------|
|-2---------------|-2---------------|-----------------|-----------------|
|-0---------------|-0---------------|-5---------------|-6---------------|
 

  C6                B7 b9             G M7              C7
|-----------------|-----------------|-----------------|-----------------|
|-----------------|-----------------|-3---------------|-1---------------|
|-5---------------|-5---------------|-4---------------|-3---------------|
|-7---------------|-7---------------|-4---------------|-2---------------|
|-7---------------|-----------------|-----------------|-3---------------|
|-----------------|-7---------------|-3---------------|-----------------|
 

  F#m               Bm                E7                E7
|-----------------|-----------------|-----------------|-----------------|
|-2---------------|-3---------------|-3---------------|-3---------------|
|-2---------------|-4---------------|-1---------------|-1---------------|
|-4---------------|-4---------------|-0---------------|-0---------------|
|-4---------------|-2---------------|-2---------------|-2---------------|
|-----------------|-----------------|-0---------------|-0---------------|


                                      To coda.
  Gm6               C7                E7                D# M7
|-----------------|-----------------|-----------------|-----------------|
|-3---------------|-1---------------|-3---------------|-3---------------|
|-3---------------|-3---------------|-1---------------|-0---------------|
|-2---------------|-2---------------|-0---------------|-1---------------|
|-----------------|-3---------------|-2---------------|-----------------|
|-3---------------|-----------------|-0---------------|-----------------|
 


  D M7                    D6
  1 + 2 + 3 + 4 +   1 + 2 + 3 + 4 +
|-----------------|-----------------|
|-2---2---2-----2-|-2-2---0---0-----|
|-2---2---2-----2-|-2-2---2---2-----|    D.S. al coda
|-0---0---0-----0-|-0-0---0---0-----|
|-0---0---0-----0-|-0-0---0---0-----|
|-----------------|-----------------|
 

  Coda.
                                    |------------------- repeat & fade -|
  E7                A9        A7       D M7              C
|-----------------|-----------------|-----------------|-----------------|
|-0---------------|-0--------2------|-2---------------|-1---------------|
|-1---------------|-0--------0------|-2---------------|-0---------------|
|-0---------------|-2--------2------|-0---------------|-2---------------|
|-2---------------|-0--------0------|-0---------------|-3---------------|
|-0---------------|-----------------|-----------------|-----------------|
Comments