Gil Scott-heron - The Revolution Will Not Be Televised Chords & Tabs

 

The Revolution Will Not Be Televised Chords & Tabs

Gil Scott-heron Chords & Tabs

Version: 1 Type: Bass Tab 0 ratings
1 star 2 stars 3 stars 4 stars 5 stars
comments

The Revolution Will Not Be Televised Bass Tab

Gil Scott-Heron - "Revolution Will Not Be Televised"



G|-----9--------9---|-----9--------9---|-----9--------9---|-----9--------9----|
D|9--------9--------|9--------9--------|9--------9--------|9--------9-----9---|
A|-7-7------777-----|-7-7------777-----|-7-7------777-----|-7-7------7-7------|
E|------------------|------------------|------------------|-------------------|


G|-----9--------9---|-----9--------9---|-----9--------9---|-----9--------9----|
D|9--------9--------|9--------9--------|9--------9--------|9--------9-----9---|
A|-7-7------777-----|-7-7------777-----|-7-7------7-7-----|-7-7------7-7------|
E|------------------|------------------|------------------|-------------------|


G|-----9--------9---|-----9--------9---|-----9-------------|
D|9--------9--------|9--------9--------|9--------9----9----|
A|-7-7------777-----|-7-7------777-----|-7-7------7-7---7--|
E|------------------|------------------|-------------------|

0:30

G|------6--------6---|-----6--------6---|-----6--------6---|-----6--------6---|
D|----------6--------|6--------6--------|6--------6--------|6--------6--------|
A|2-4-4------444-----|-4-4------444-----|-4-4------444-----|-4-4------444-----|
E|-------------------|------------------|------------------|------------------|


G|-----6--------6---|-----6--------6---|-----6--------6---|---------6-------|
D|6--------6--------|6--------6--------|6--------6--------|6----6-----------|
A|-4-4------4-4-----|-4-4------444-----|-4-4------444-----|-4-4------44-4-4-|
E|------------------|------------------|------------------|-----------------|

0:50

G|-----4--------4---|-----4--------4---|-----4--------4---|-----4--------4----|
D|---------4--------|4--------4--------|4--------4--------|4--------4------4\2|
A|-2-2------222-----|-2-2------222-----|-2-2------222-----|-2-2------2-2------|
E|2-----------------|------------------|------------------|-------------------|


G|----4--------4---|-----4--------4----|-----4--------4---|-----4---------4---|
D|--------4--------|4--------4-----4---|4--------4--------|4--------4---4--4--|
A|2-2------222-----|-2-2------222------|-2-2------222-----|-2-2-------2-------|
E|-----------------|-------------------|------------------|-------------------|

1:12

G|------------|----------------|----------------|----------------|-----------------|
D|-8----------|----678---------|----678---------|----678---------|------68---------|
A|8--5-56-78--|--8----5-6-7-8--|--8----5-56-78--|---8---5-56-78--|5-6-78--5-56-78--|
E|----------6-|6-------------6-|6-------------6-|6-6-----------6-|---------------6-|

[ Tab from: http://www.guitartabs.cc/tabs/g/gil_scott_heron/the_revolution_will_not_be_televised_btab.html ]
G|----------------|----------------|
D|-----688--------|-----68---------|
A|5-678---5-6788--|5-678--5---58---|
E|--------------6-|----------6--44-|

1:30

G|-----6-----------46|------456--------|-----6-----------46|-------46--------|
D|----6----6----6----|----6-----3--45--|6--------6----6----|----6------3-45--|
A|4-4-------4-4------|4-4------4-------|-4-4------444------|4-4------4-------|
E|-------------------|-----------------|-------------------|-----------------|


G|-----6-------------|-----6---------456|-----6-----------46|----6-----------46|
D|6--------6--3--45--|6--------6----6---|6--------6----6----|--------6----6----|
A|-4-4------44-------|-4-4------444-----|-4-4------4-4------|4-4------444------|
E|-------------------|------------------|-------------------|------------------|


G|----6-----------46|----6---------456|-----6--------6-46|----6---------6---|
D|--------6----6----|--------6---6----|6--------6-----6--|--------6----6----|
A|444------4-4------|4-4------44------|-4-4------4-4-----|4-4------444------|
E|------------------|-----------------|------------------|------------------|


G|-----6--------6-----|
D|6--------6---6-6----|
A|-4-4------444---4-7-|
E|-----------------7--|

2:06

G|---9----------9-|------9-----------79|----9~\----------79|-----9~\----------79|
D|-------9----9---|9---------9----9----|--------9----9--9--|---------9----9--9--|
A|77------77------|-7-77------7777-----|7-7------77--------|7-77------77--------|
E|----------------|--------------------|-------------------|--------------------|


G|-----9---------79|----9~\---------79|----9~\---------79|-----9-----------|
D|----9-------9----|---------9----9---|---------9----9---|----9---9--------|
A|7-7-----7--7-----|7-7-------777-----|7-7-------777-----|7-77-----7-7-6-5-|
E|-----------------|------------------|------------------|-----------------|

2:28

G|-----6---------46|-------6--------46|----6-----------46|-------46---------|
D|----6----6---6---|----6---6----6----|--------6----6----|----6------3-4-5-6|
A|4-4-------4------|4-4------4-4------|4-4------4-4------|4-4------4--------|
E|-----------------|------------------|------------------|------------------|


G|----6---------46-|------46---------|----6-----------------|
D|--------6----6--6|----6-----3-4-5-6|--------6----3-4-6----|
A|4-4------4-4-----|4-4--------------|4-4------44-------44--|
E|-----------------|-----------------|----------------------|

2:48

G|6---6---6-------6-----6-6-6------6-----------------6-|------------|
D|--6---6---6--------6-------46-------6-3-4-5-6-6------|--fade out--|
A|------------4-44----4--------4-4---------------4-44--|------------|
E|-----------------------------------------------------|------------|
Comments