Giant Drag - This Isn't It Chords & Tabs

 

This Isn't It Chords & Tabs

Giant Drag Chords & Tabs

Version: 1 Type: Tab

This Isn't It Tab

Intro/Verse and the rest of the song
e--------------------------------------------------|
B--------------------------------------------------|
G--------------------------------------------------|
D--3------------10--------5------------------------|
A--3--x18-------10-x8-----5-x8---------------------|
E--1-------------8--------3------------------------|

or, if you want to do it sounding like the keyboard part as well (i used to think this was it)
[ Tab from: http://www.guitartabs.cc/tabs/g/giant_drag/this_isnt_it_tab.html ]
Intro/Verse and the rest of the song
e---------------------------------------------------------|
B---------------------------------------------------------|
G--10---------12------------------------------------------|
D--10--x12----12--x2-----10---------12-------5------------|
A--8----------10---------10-x10-----12-x2----5--x8--------|
E------------------------8----------10-------3------------|


Chorus (love love love bit)

e-------------------------------------|
B-------------------------------------|
G-------------------------------------| Then back to main riff
D---8---8---8----8-8-8-8-8-8----------|
A---8---8---8----8-8-8-8-8-8----------|
E---6---6---6----6-6-6-6-6-6----------|

I think she plays the high F for the intro and in between the chorus and verses. i cant 
bothred to write out all of that right now though. feel free to point out all of my mistakes.
i'll try and do the solo soon.

http://www.giantdrag.com/