Ghoti Hook - Tract Boy Chords & Tabs

 

Tract Boy Chords & Tabs

Ghoti Hook Chords & Tabs

Version: 2 Type: Bass Tab 0 ratings
1 star 2 stars 3 stars 4 stars 5 stars
comments

Tract Boy Bass Tab

this is a .tab file, because I couldn't change it to a .btab, but it is a bass tab.#----------------------------------PLEASE NOTE--------------------------------#
#This file is the author's own work and represents their interpretation of the#
#song. You may only use this file for private study, scholarship, or research.#
#-----------------------------------------------------------------------------#
#-- File created with Instab - http://www.pconline.com/~smcarey/instab.html --#
#-----------------------------------------------------------------------------#

Author/Artist: Ghoti Hook
Title: Tract Boy
Album: Sumo Suprise
Transcribed by: Jed
Email: CokeMan007@usa.net

Ignore top 2 strings, since this is for bass, and enjoy!
Visit my webpage at http://members.tripod.com/~CokeMan007/index.html

-2-----3-----2-2-|-0-----0-----0-0-|-2-----3-----2-2-|-0--------|-------------
-3-----3-----3-3-|-2-----0-----2-2-|-3-----3-----3-3-|-2--------|-------------
-2-----2-----2-2-|-2-----2-----2-2-|-2-----2-----2-2-|-2--------|-------------
-0-----0-----0-0-|-2-----2-----2-2-|-0-----0-----0-0-|-2--------|-4x----------
-----------------|-0-----0-----0-0-|-----------------|-0--------|-------------
-----------------|-----------------|-----------------|----------|-------------
 Guitar Intro(above)/Intro(Bass, when it comes in, below)                     

-----------------|-----------------|-----------------|------------|-----------
-----------------|-----------------|-----------------|------------|-----------
-----------------|-----------------|----------------0|-2----------|-2x--------
-0-----0-----0---|-----------------|-0-----0-----0h2-|------------|-----------
-----------------|-0-----2-----0---|-----------------|------------|-----------
-----------------|-----------------|-----------------|------------|-----------
 Intro2(guitar plays, bass hits "D")/Verse Intro(below)                       
[ Tab from: http://www.guitartabs.cc/tabs/g/ghoti_hook/tract_boy_btab_ver_2.html ]
-----------------|-----------------|-----------------|-----------------|------
-----------------|-----------------|-----------------|-----------------|------
-----------------|-----------------|-----------------|-----------------|------
-----------------|-----------------|-----------------|-----------------|------
-5-5-5-5-0-0-0-0-|-5-5-5-5-0-0-0-0-|-5-5-5-5-0-0-0-0-|-------------2---|------
-----------------|-----------------|-----------------|-3-3-3-3-3-3-----|------
                                                                              

-----------------|------------------------------------------------------------
-----------------|------------------------------------------------------------
-----------------|------------------------------------------------------------
-----------------|------------------------------------------------------------
-0-0-0-0-0-0-0-0-|-2x---------------------------------------------------------
-----------------|------------------------------------------------------------
 Verse(same as Verse Intro, 2x)/Chorus(below)                                 

-----------------|---------------------|--------------------------------------
-----------------|---------------------|--------------------------------------
-----------------|---------------------|--------------------------------------
-----------------|---------------------|--------------------------------------
-5-5-5-5-------0-|---------------------|-4x-----------------------------------
---------3-3-3---|---------------------|--------------------------------------
 Verse Intro/Verse/Chorus/Middle Section(below)                               

-----------------|-----------------|-----------------|-----------------|------
-----------------|-----------------|-----------------|-----------------|------
-----------------|-----------------|-----------------|-----------------|------
-----------------|-----------------|-----------------|-----------------|------
-2-2-2-2-2-2-2-2-|-5-5-5-5-5-5-5-5-|-----------------|-0-0-0-0-0-0-0-0-|-2x---
-----------------|-----------------|-3-3-3-3-3-3-3-3-|-----------------|------
 Verse Intro(2nd time thru, no "B")/Verse(4x)/Chorus/Verse Intro/End on "D"   
Comments