Ghoti Hook - Middle Ground Chords & Tabs

 

Middle Ground Chords & Tabs

Ghoti Hook Chords & Tabs

Version: 2 Type: Bass Tab 0 ratings
1 star 2 stars 3 stars 4 stars 5 stars
comments

Middle Ground Bass Tab

Ghoti Hook
Middle ground
Album: Banana Man
Tabbed by: Cody Frisch (frisch@nnex.net)

Intro
G----------------------------------------------------------------------------------]
D----------------------------------------------------------------------------------]
A---5-5-5-5-5-5-5-5---3-3-3-3-3-3-3-3---5-5-5-5-5-5-5-5---8-8-8---10-10-10---------]
E----------------------------------------------------------------------------------]


G----------------------------------------------------------------------------------]
D----------------------------------------------------------------------------------]
A---5-5-5-5-5-5-5-5---3-3-3-3-3-3-3-3---5-5-5-5-5-5-5-5----------------------------]
E---------------------------------------------------------1-0-1-3-1-3-5------------]
[ Tab from: http://www.guitartabs.cc/tabs/g/ghoti_hook/middle_ground_btab_ver_2.html ]
Chorus
G--------------------------------------------------------------------------------------------
D--------------------------------------------------------------------------------------------
A--5-5-5-5-5---3-3-3-3-3--------------------------5-5-5-5-5---3-3-3-3-3----------------------
E---------------------------3-3-3-3-3---1-1-1-1-1-------------------------1-1-1-1-1--3-3-3-3-3

----]
----]
----] X2
----]

                 Weary and alone.................................
G-----------------------------------------------------------------------------------]
D-----------------------------------------------------------------------------------]
A-----------------------------------------------------------------------------------]
E----6-6-6-6-6-6-6-6-6------5-5-5-5-5-5-5-5-----------------------------------------]

Bridge
G-----------------------------------------------------------------------------------]
D-----------------------------------------------------------------------------------]X4
A---5-5-5-5-5---1-1-1-1-1---3-3-3-3-3-3-3-3-3-3-3-----------------------------------]
E-----------------------------------------------------------------------------------]


Solo
G------------------------------------------------------------------------------------]
D-----7-5-3---5-3-2---3-2-0----------7-5-3---5-3-2---3-2-0---------------------------]
A---5-------3-------1-------0------5-------3-------1--------3------------------------]
E-----------------------------3-1----------------------------------------------------]
Comments