Ghost Of The Robot - Just What I Needed Chords & Tabs

 

Just What I Needed Chords & Tabs

Ghost Of The Robot Chords & Tabs

Version: 1 Type: Tab 1 rating
1 star 2 stars 3 stars 4 stars 5 stars
comments

Just What I Needed Tab

artist:Ghost Of The Robot
song:Just what i needed
tab by:darryl hanlon

key:
            X = dead note
            / = slide to
number of r's = where to hold note to
         (  ) = played fast
            ^ = above

RIFF A (intro) guitar one
|------------------------------------------------------------------|
|------------------------------------------------------------------|
|-9-9--X-X--9-9----4-4--X-X--4--4-4/6-6--X-X--6-6------------------|
|-9-9--X-X--9-9----4-4--X-X--4--4-4/6-6--X-X--6-6----6-6--X-X--6-6-|
|-7-7--X-X--7-7----2-2--X-X--2--2-2/4-4--X-X--4-4----6-6--X-X--6-6-|
|-X-X--X-X--X-X----X-X--X-X--X------X-X--X-X--X-X----4-4--X-X--4-4-|


|-------------------------------------------------------------|
|-------------------------------------------------------------|
|-9-9--X-X--9-9----4-4--X-X--4--4-4/6-6--X-X--6-6----5-5---5--|
|-9-9--X-X--9-9----4-4--X-X--4--4-4/6-6--X-X--6-6----6-6---6--|
|-7-7--X-X--7-7----2-2--X-X--2--2-2/4-4--X-X--4-4----6-6---6--|
|-X-X--X-X--X-X----X-X--X-X--X------X-X--X-X--X-X----4-4---4--|

                                                                    
|------------------------------------------------------------------|
|------------------------------------------------------------------|
|-9-9--X-X--9-9----4-4--X-X--4-4----6-6--X-X--6-6------------------|
|-9-9--X-X--9-9----4-4--X-X--4-4----6-6--X-X--6-6----6-6--X-X--6-6-|
|-7-7--X-X--7-7----2-2--X-X--2-2----4-4--X-X--4-4----6-6--X-X--6-6-|
|-X-X--X-X--X-X----X-X--X-X--X-X----X-X--X-X--X-X----4-4--X-X--4-4-|

|------------------------------------------------------------------|
|------------------------------------------------------------------|
|-9-9--X-X--9-9----4-4--X-X--4-4----6-6--X-X--6-6------------------|
|-9-9--X-X--9-9----4-4--X-X--4-4----6-6--X-X--6-6----6-6--X-X--6-6-|
|-7-7--X-X--7-7----2-2--X-X--2-2----4-4--X-X--4-4----6-6--X-X--6-6-|
|-X-X--X-X--X-X----X-X--X-X--X-X----X-X--X-X--X-X----4-4--X-X--4-4-|

|------------------------------------------------------------------|
|------------------------------------------------------------------|
|-9-9--X-X--9-9----4-4--X-X--4-4----6-6--X-X--6-6------------------|
|-9-9--X-X--9-9----4-4--X-X--4-4----6-6--X-X--6-6----6-6--X-X--6-6-|
|-7-7--X-X--7-7----2-2--X-X--2-2----4-4--X-X--4-4----6-6--X-X--6-6-|
|-X-X--X-X--X-X----X-X--X-X--X-X----X-X--X-X--X-X----4-4--X-X--4-4-|

guitar one (guitar one and two played at same time)
|------------------------------------------------------------|
|------------------------------------------------------------|
|-9-9--X-X--9-9----4-4--X-X--4-4----6-6--X-X--6-6----5-5---5-|
|-9-9--X-X--9-9----4-4--X-X--4-4----6-6--X-X--6-6----6-6---6-|
|-7-7--X-X--7-7----2-2--X-X--2-2----4-4--X-X--4-4----6-6---6-|
|-X-X--X-X--X-X----X-X--X-X--X-X----X-X--X-X--X-X----4-4---4-|
|                                                            |
|guitar two                                                  |
|------------------------------------------------------------|
|--9/12rrrrrrrrrrrrrrrrrrrrrrrr------------------------------|
|------------------------------------------------------------|
|------------------------------------------------------------|
|------------------------------------------------------------|
|------------------------------------------------------------|

CHORUS
guitar one (guitar one and two played at same time)
|------------------------------------------------------------------|
|------------------------------------------------------------------|
|--9-9-9-9-9-9------4-4-4-4-4-4-----6-6-6-6-6-6--------------------|
|--9-9-9-9-9-9------4-4-4-4-4-4-----6-6-6-6-6-6-----6-6-6-6-6---6--|
|--7-7-7-7-7-7------2-2-2-2-2-2-----4-4-4-4-4-4-----6-6-6-6-6---6--|
|---------------------------------------------------4-4-4-4-4---4--|
|                                                                  |
|guitar two (solo part one)                                        |  
|---------------------------------------12--11--9------------------|
|12-12-12-12-12-12-9-12-12-12-12-12-12--------------12--9rrrrrrrrr-|
|------------------------------------------------------------------| 
|------------------------------------------------------------------|
|------------------------------------------------------------------|
|------------------------------------------------------------------|

 guitar one (guitar one and two played at same time)         
|------------------------------------------------------------------|
|------------------------------------------------------------------|
|-9-9--X-X--9-9----4-4--X-X--4-4----6-6--X-X--6-6------------------|
|-9-9--X-X--9-9----4-4--X-X--4-4----6-6--X-X--6-6----6-6--X-X--6-6-|
|-7-7--X-X--7-7----2-2--X-X--2-2----4-4--X-X--4-4----6-6--X-X--6-6-|
|-X-X--X-X--X-X----X-X--X-X--X-X----X-X--X-X--X-X----4-4--X-X--4-4-|
|                                                                  |
|guitar two (solo part two)                                        |
|------------------------------------12--11--9---------------------|
|-----9/12rrrrrrrrrrrrrrrrrrrrrr---------------------12--9r--------|
|------------------------------------------------------------------|
|------------------------------------------------------------------|
|------------------------------------------------------------------|
|------------------------------------------------------------------|


guitar one (guitar one and two played at same time)
|------------------------------------------------------------|
|------------------------------------------------------------|
|-9-9--X-X--9-9----4-4--X-X--4-4----6-6--X-X--6-6----5-5---5-|
|-9-9--X-X--9-9----4-4--X-X--4-4----6-6--X-X--6-6----6-6---6-|
|-7-7--X-X--7-7----2-2--X-X--2-2----4-4--X-X--4-4----6-6---6-|
|-X-X--X-X--X-X----X-X--X-X--X-X----X-X--X-X--X-X----4-4---4-|
|                                                            |
|guitar two (solo part three)                                |
|-------------------------12-12-11-11-9-9--------------------|
|-9/12rr--9-9-9-12-9-9-9-------------------11/13-11/13-11/13-|
|------------------------------------------------------------|
|------------------------------------------------------------|
|------------------------------------------------------------|
|------------------------------------------------------------|



|------------------------------------------------------------------|
|------------------------------------------------------------------|
|-9-9--X-X--9-9----4-4--X-X--4-4----6-6--X-X--6-6------------------|
|-9-9--X-X--9-9----4-4--X-X--4-4----6-6--X-X--6-6----6-6--X-X--6-6-|
|-7-7--X-X--7-7----2-2--X-X--2-2----4-4--X-X--4-4----6-6--X-X--6-6-|
|-X-X--X-X--X-X----X-X--X-X--X-X----X-X--X-X--X-X----4-4--X-X--4-4-|

[ Tab from: http://www.guitartabs.cc/tabs/g/ghost_of_the_robot/just_what_i_needed_tab.html ]
|------------------------------------------------------------------|
|------------------------------------------------------------------|
|-9-9--X-X--9-9----4-4--X-X--4-4----6-6--X-X--6-6------------------|
|-9-9--X-X--9-9----4-4--X-X--4-4----6-6--X-X--6-6----6-6--X-X--6-6-|
|-7-7--X-X--7-7----2-2--X-X--2-2----4-4--X-X--4-4----6-6--X-X--6-6-|
|-X-X--X-X--X-X----X-X--X-X--X-X----X-X--X-X--X-X----4-4--X-X--4-4-|


|------------------------------------------------------------------|
|------------------------------------------------------------------|
|-9-9--X-X--9-9----4-4--X-X--4-4----6-6--X-X--6-6------------------|
|-9-9--X-X--9-9----4-4--X-X--4-4----6-6--X-X--6-6----6-6--X-X--6-6-|
|-7-7--X-X--7-7----2-2--X-X--2-2----4-4--X-X--4-4----6-6--X-X--6-6-|
|-X-X--X-X--X-X----X-X--X-X--X-X----X-X--X-X--X-X----4-4--X-X--4-4-|

CHORUS
|------------------------------------------------------------|
|------------------------------------------------------------|
|-9-9-9-9-9-9----4-4-4-4-4-4----6-6-6-6-6-6------------------|
|-9-9-9-9-9-9----4-4-4-4-4-4----6-6-6-6-6-6----6-6-6-6-6---6-|
|-7-7-7-7-7-7----2-2-2-2-2-2----4-4-4-4-4-4----6-6-6-6-6---6-|
|----------------------------------------------4-4-4-4-4---4-|

|----------------------------------------|
|----------------------------------------|
|-9--------------------9-----------------|
|-9--9--9--7--11--9----9--9--9--7--11--9-|
|-7--9--9--7--11--9----7--9--9--7--11--9-|
|----7--7-----9---7-------7--7-----9---7-|

|----------------------------------------------------------------------|
|----------------------------------------------------------------------|
|-9--------------------9-----------------------------------------------|
|-9--9--9--7--11--9----9--9--9--7--11--11-11--11--11-11--11--11-11--11-|
|-7--9--9--7--11--9----7--9--9--7--11--11-11--11--11-11--11--11-11--11-|
|----7--7-----9---7-------7--7-----9---9--9---9---9--9---9---9--9---9--|

guitar one (guitar one and two played at same time)
|------------------------------------------------------------------|
|------------------------------------------------------------------|
|-9-9--X-X--9-9----4-4--X-X--4-4----6-6--X-X--6-6------------------|
|-9-9--X-X--9-9----4-4--X-X--4-4----6-6--X-X--6-6----6-6--X-X--6-6-|
|-7-7--X-X--7-7----2-2--X-X--2-2----4-4--X-X--4-4----6-6--X-X--6-6-|
|-X-X--X-X--X-X----X-X--X-X--X-X----X-X--X-X--X-X----4-4--X-X--4-4-|
|                                                                  |
|guitar two (solo two part one)                                    |
|-----------------------------12--11--9----------------------------|
|-12-12-12-12-9-12-12-12-12---------------12--9rrrrrrrrrrrrrrrrrr--|
|------------------------------------------------------------------|
|------------------------------------------------------------------|
|------------------------------------------------------------------|
|------------------------------------------------------------------|

guitar one (guitar one and two played at same time)
|--------------------------------------------------------------|
|--------------------------------------------------------------|
|-9-9--X-X--9-9----4-4--X-X--4-4----6-6--X-X--6-6----5-5---5---|
|-9-9--X-X--9-9----4-4--X-X--4-4----6-6--X-X--6-6----6-6---6---|
|-7-7--X-X--7-7----2-2--X-X--2-2----4-4--X-X--4-4----6-6---6---|
|-X-X--X-X--X-X----X-X--X-X--X-X----X-X--X-X--X-X----4-4---4---|
|                                                              |
|guitar two (solo two part two)                                |
|--------------------------12-12-11-11-9-9--------------(12/15)|
|9/12rr-9/12-9/12-9/12rr-12---------------12-10-(10/14/12)-----|
|------------------------------------------------^only pick first notes here
|--------------------------------------------------------------|
|--------------------------------------------------------------|
|--------------------------------------------------------------|


|------------------------------------------------------------------|
|------------------------------------------------------------------|
|-9-9--X-X--9-9----4-4--X-X--4-4----6-6--X-X--6-6------------------|
|-9-9--X-X--9-9----4-4--X-X--4-4----6-6--X-X--6-6----6-6--X-X--6-6-|
|-7-7--X-X--7-7----2-2--X-X--2-2----4-4--X-X--4-4----6-6--X-X--6-6-|
|-X-X--X-X--X-X----X-X--X-X--X-X----X-X--X-X--X-X----4-4--X-X--4-4-|

|------------------------------------------------------------------|
|------------------------------------------------------------------|
|-9-9--X-X--9-9----4-4--X-X--4-4----6-6--X-X--6-6------------------|
|-9-9--X-X--9-9----4-4--X-X--4-4----6-6--X-X--6-6----6-6--X-X--6-6-|
|-7-7--X-X--7-7----2-2--X-X--2-2----4-4--X-X--4-4----6-6--X-X--6-6-|
|-X-X--X-X--X-X----X-X--X-X--X-X----X-X--X-X--X-X----4-4--X-X--4-4-|

|------------------------------------------------------------|
|------------------------------------------------------------|
|-9-9--X-X--9-9----4-4--X-X--4-4----6-6--X-X--6-6----5-5---5-|
|-9-9--X-X--9-9----4-4--X-X--4-4----6-6--X-X--6-6----6-6---6-|
|-7-7--X-X--7-7----2-2--X-X--2-2----4-4--X-X--4-4----6-6---6-|
|-X-X--X-X--X-X----X-X--X-X--X-X----X-X--X-X--X-X----4-4---4-|

CHORUS
guitar one (guitar one and two played at same time)
|------------------------------------------------------------|
|------------------------------------------------------------|
|-9-9-9-9-9-9----4-4-4-4-4-4----6-6-6-6-6-6------------------|
|-9-9-9-9-9-9----4-4-4-4-4-4----6-6-6-6-6-6----6-6-6-6-6---6-|
|-7-7-7-7-7-7----2-2-2-2-2-2----4-4-4-4-4-4----6-6-6-6-6---6-|
|----------------------------------------------4-4-4-4-4---4-|
|                                                            |
| guitar two (solo three)                                    |
|---------------------------------------12-12-11-11-9-9------|
|---12-12-12-12-12--9--12-12-12-12-12-------------------12-10|
|------------------------------------------------------------|
|------------------------------------------------------------|
|------------------------------------------------------------|
|------------------------------------------------------------|


|----------------------------------------|
|----------------------------------------|
|-9--------------------9-----------------|
|-9--9--9--7--11--9----9--9--9--7--11--9-|
|-7--9--9--7--11--9----7--9--9--7--11--9-|
|----7--7-----9---7-------7--7-----9---7-|

|----------------------------------------------------------------------|
|----------------------------------------------------------------------|
|-9--------------------9-----------------------------------------------|
|-9--9--9--7--11--9----9--9--9--7--11--11-11--11--11-11--11--11-11--11-|
|-7--9--9--7--11--9----7--9--9--7--11--11-11--11--11-11--11--11-11--11-|
|----7--7-----9---7-------7--7-----9---9--9---9---9--9---9---9--9---9--|


OUTRO
|----------------------------------------------------------------------------|
|----------------------------------------------------------------------------|
|-9-9--X-X----4--X-X--4/6--X-X--------------9-9--X-X----4--X-X--4/6-6--6rrrr-|
|-9-9--X-X----4--X-X--4/6--X-X----4--X-X----9-9--X-X----4--X-X--4/6-6--6rrrr-|
|-7-7--X-X----2--X-X--2/4--X-X----4--X-X----7-7--X-X----2--X-X--2/4-4--4rrrr-|
|-X-X--X-X----X--X-X-------X-X----6--X-X----X-X--X-X----X--X-X---------------|


Comments