Gg Allin - You Hate Me And I Hate You Chords & Tabs

 

You Hate Me And I Hate You Chords & Tabs

Gg Allin Chords & Tabs

Version: 1 Type: Tab 0 ratings
1 star 2 stars 3 stars 4 stars 5 stars
comments

You Hate Me And I Hate You Tab

YOU HATE ME & I HATE YOU,
by GG Allin & the Jabbers(?)
(at least part of the jabbers line-up)
Tabbed by Jake Strange.

Intro:
e|---------------------||------------------------------|
B|---------------------||------------------------------|
G|------------------7--||------7-----7-----7-----7-----|
D|--7777777777777---7--||--77--7--7--7--7--7--7--7--(7)|
A|--7777777777777---5--||--77--5--7--5--7--5--7--5--(7)|
E|--5555555555555------||--55-----5-----5-----5-----(5)||
  (play this measure 3x)

Verses: Play the following part along with each verse and during
        the solo. Sorry, I don't have the solo. I only put
        the TAB for the chords, not the rhythm.
e|------------------------------------------------|
B|------------------------------------------------|
G|--------9---------------------------------------|
D|--7-----9-----7--------9---7---5---4------------|
A|--7-----7-----7--------9---7---5---4------------|
E|--5-----------5--------7---5---3---2------------|
[ Tab from: http://www.guitartabs.cc/tabs/g/gg_allin/you_hate_me_and_i_hate_you_tab.html ]
e|-------------------||-----------------------||
B|-------------------||-----------------------||
G|--------9----------||---7-------------------||
D|--7-----9-----7----||---7-----7-----9-------||
A|--7-----7-----7----||---5-----7-----9-------||
E|--5-----------5----||---------5-----7-------|||

Play 2nd measure of 2nd bar for ending. Play along with
the song for all the timings.
---------------------
Well, you hate me & I hate you
You never understand the things I say or do
So what's new?!
You never liked me so I say fuck you!
You know you know that you don't like me & i don't like you.
                  (don't like, don't like, don't like, don't like!!)

You never listened to me point of view
I'm telling you!
Why don't you all drop dead you fucking fools!
It's you who'll lose.
You never wanted me so I say fuck you!
You know, you know that you don't like me, so I say fuck you!
                  (don't like, don't like, don't like, don't like!!)

Go fuck yourself!

You never liked the things I say or do
So, what'cha gonna do?!
Why don't you all go home or go back to school
with your Golden Rule!
Mindless, gutless puppets
Who needs you?!
You know, you know that you don't like me & I don't like you....
                  (don't like, don't like, don't like, don't like!!!)
Comments