Gg Allin - Dont Talk To Me Chords & Tabs

 

Dont Talk To Me Chords & Tabs

Gg Allin Chords & Tabs

Version: 1 Type: Bass Tab 0 ratings
1 star 2 stars 3 stars 4 stars 5 stars
comments

Dont Talk To Me Bass Tab

GG ALLIN & THE JABBERS-"DON'T TALK TO ME"
TABBED BY RYAN C.
[ Tab from: http://www.guitartabs.cc/tabs/g/gg_allin/dont_talk_to_me_btab.html ]
VERSE
G-------------------------------------------------------------
D-------------------------------------------------------------
A-77-55----7 /7-----------------------------------------------
E-----55------------------------------------------------------


CHORUS
G-----------------------------------------------------------
D------------5-7-5------------------------------------------
A-77-55----7------------------------------------------------
E-----55----------------------------------------------------
Comments