Gg Allin - Die When You Die Chords & Tabs

 

Die When You Die Chords & Tabs

Gg Allin Chords & Tabs

Version: 2 Type: Tab 0 ratings
1 star 2 stars 3 stars 4 stars 5 stars
comments

Die When You Die Tab

DIE WHEN YOU DIE, by GG Allin & Buldge.
From the album "Freaks Faggots Drunks & Junkies"
Also appears on the "Hated" soundtrack.
Tabbed by Jake Strange  (aka: scumfuc)
Email:  jakestrange@chaosmagic.com

OK, the solos in this song are mostly nothing but
single high notes (e & f#). If you can't figure that
much out on your own...well, sorry.
Very simple (great) song!
Starts out by stumming an F# power-chord 5x, then a
break before all instruments come in.
[ Tab from: http://www.guitartabs.cc/tabs/g/gg_allin/die_when_you_die_tab_ver_2.html ]
Main Part/Verses:
e|-------------------------------------|
B|-------------------------------------|
G|-------------------------------------|
D|--4-4-4-4-4-4-4-4-4-4-4----7---9-----|
A|--4-4-4-4-4-4-4-4-4-4-4----7---9-----|
E|--2-2-2-2-2-2-2-2-2-2-2----5---7-----|

Chorus:
e|----------------------------------------------|
B|----------------------------------------------|
G|------------------------7-7-7-7---------------|
D|---7-7-7-7---9-9-9-9----7-7-7-7---4-4-4-4-4---|
A|---7-7-7-7---9-9-9-9----5-5-5-5---4-4-4-4-4---|
E|---5-5-5-5---7-7-7-7--------------2-2-2-2-2---|

Figuring out the little solos is the only "real" challenge
to this song...but even a beginner should be able to get it.
Remember this is in standard tuning!
Comments