Get Up Kids - Valentine Chords & Tabs

 

Valentine Chords & Tabs

Get Up Kids Chords & Tabs

Version: 1 Type: Tab 0 ratings
1 star 2 stars 3 stars 4 stars 5 stars
comments

Valentine Tab

#----------------------------------PLEASE NOTE---------------------------------#
#This file is the author's own work and represents their interpretation of the #
#song. You may only use this file for private study, scholarship, or research. #
#------------------------------------------------------------------------------##

BAND: the get up kids
ALBUM: something to write home about
SONG: valentine
BY:james

intro...
e--------7----5------4--------------|---12--11-------------------------
b----5-------------------------5~~--|-----------12------9----10~-------
g-----------------------------------|----------------------------------
d-----------------------------------|----------------------------------
a-----------------------------------|----------------------------------
E-----------------------------------|---------------------------------
[ Tab from: http://www.guitartabs.cc/tabs/g/get_up_kids/valentine_tab.html ]
optional                      VERSE/    ^^^^^^palm muted^^^^^^^^^^^^^^^
e------12---11------------------|----------------------------------------
b------12---12-----12----9---10-|-----------------------------------------
g------------------13----9---9--|---9-9-9-----------4-4-4-4---------------
d-------------------------------|---9-9-9-repeat ---4-4-4-4-repeat--------
a-------------------------------|---7-7-7-----------2-2-2-2---------------
E-------------------------------|--------------------------------------
                      
                
^^^^^^^palm muted^^^^^^^^^^^^^^^^^^^^^^^^^^^^
e------------------------------------------------------------------------
b----------------------------------------------------------------------
g--6-6-6-6----------------------------------------------------------------
d--6-6-6-6-repeat-----7-7-7-7----------------------------------------------
a--4-4-4-4------------7-7-7-7-repeat--------------------------------------
E---------------------5-5-5-5---------------------------------------------


CHORUS GOES SOMETHING LIKE THIS
e----------------------------------------------------------------------
b----------------------------------------------------------------------
g--9-9-9---------------------------6-6-6-------------------------------
d--9-9-9-repeat----9-9-9-----------6-6-6-repeat---7-7-7-----------------
a--7-7-7-----------9-9-9-repeat----4-4-4----------7-7-7-repeat----------
E------------------7-7-7--------------------------5-5-5------------------
Comments