Get Up Kids - The One You Want Chords & Tabs

 

The One You Want Chords & Tabs

Get Up Kids Chords & Tabs

Version: 1 Type: Tab 0 ratings
1 star 2 stars 3 stars 4 stars 5 stars
comments

The One You Want Tab

   
-------------------------------------------------------------------------------
			     THE ONE YOU WANT - Get Up Kids
-------------------------------------------------------------------------------
Tabbed by:LinZ
Email:tguk27dewees@hotmail.com

Tuning:Standard

INTRO:                    VERSE:
e|-----2-----0-----3-----3-------2-----0-----3-----0-----3-----0-------------|
B|-----3-----3-----0-----0-------3-----3-----0-----3-----0-----3-------------|
G|-----2-----0-----0-----0-------2-----0-----0-----0-----0-----0-------------|
D|-----0-----0-----0-----0-------0-----0-----0-----0-----0-----0-------------|
A|-----x-----2-----2-----2-------x-----2-----2-----2-----2-----2-------------
E|-----x-----x-----3-----3-------------x-----3-----x-----3-----x-------------|
[ Tab from: http://www.guitartabs.cc/tabs/g/get_up_kids/the_one_you_want_tab.html ]
PRE-CHORUS:                              CHORUS:
e|-----2-----0-----3-----0-----3-----0----------3-----x-----0-----x----------|
B|-----3-----3-----0-----3-----0-----3----------0-----x-----3-----x----------
G|-----2-----0-----0-----0-----0-----0----------0-----x-----0-----x----------|
D|-----0-----0-----0-----0-----0-----0----------0-----4-----0-----4----------|
A|-----x-----2-----2-----2-----2-----2----------2-----4-----2-----4----------|
E|-----x-----x-----3-----x-----3-----x----------3-----2-----x-----2----------|
                                                 BRIDGE:                
e|-----3-----x-----0---------------------------------------------------------|
B|-----0-----x-----3---------------------------------------------------------|
G|-----0-----x-----0--------------------------------------4------------------|
D|-----0-----4-----0--------------------------------4-----4-----2-----7------
A|-----2-----4-----2--------------------------------4-----2-----2-----7------
E|-----3-----2-----x--------------------------------2-----------0-----5-----
|


ORDER:
intro 2x
verse 2x
pre-chorus 1x
chorus 1x
intro 1x
verse 2x
pre-chorus 1x
chorus 2x
bridge 2x
pre-chorus 1x
chorus 2x
intro 8x


| /  slide up
| \  slide down
| h  hammer-on
| p  pull-off
| ~  vibrato
| +  harmonic
| x  Mute note
===============================================================================
Comments