Get Up Kids - Sympathy Chords & Tabs

 

Sympathy Chords & Tabs

Get Up Kids Chords & Tabs

Version: 1 Type: Tab 0 ratings
1 star 2 stars 3 stars 4 stars 5 stars
comments

Sympathy Tab

The Get Up Kids-Sympathy


Intro
---------------0-------------------------------------------|
-------------4---------------------------------------------|
---4/6-4-2-1-----2-1------4/6-4-2-1------------------------|
-2-------------------2--2-----------4/6\2------------------|
-----------------------------------------------------------|
-----------------------------------------------------------|

Verse
-----------------------------------------------------------|
-----------------------------------------------------------|
--9-8---6---------9-8---6-----4-----9----------------------|
9-----9---9-----9-----9---9-6---6/7---7--------------------|
-----------------------------------------------------------|
-----------------------------------------------------------|

Chorus
-----------------------------------------------------------|
55557777555577775555777755554444---------------------------|
44444444444444444444444444444444---------------------------|
-----------------------------------------------------------|
-----------------------------------------------------------|
-----------------------------------------------------------|
[ Tab from: http://www.guitartabs.cc/tabs/g/get_up_kids/sympathy_tab.html ]
Bridge
-----------------------------------------------------------|
-----------------------------------------------------------|
-----------------------------------------------------------|
-11111111111111-999-777777777777777777777-999999-10101010--|
-x-x-x-x-x-x-x--xxx-xxxxxxxxxxxxxxxxxxxxx-xxxxxx-x-x-x-x---|
-9-9-9-9-9-9-9--777-555555555444555555555-777777-8-8-8-8---|

----------------0-------------------------------------------|
-----------0--------------------9---7-----------------------|
-/9-8-6-4?1-1-2--2-/9-8-6-4-4/9---9---9-11-9----------------|
------------------------------------------------------------|
------------------------------------------------------------|
------------------------------------------------------------|

Outro
-----------------------------------------------------------|
-----------------------------------------------------------|
-99-88-16--16----------------------------------------------|
-xx-xx-x---x-----------------------------------------------|
-77-66-14--14----------------------------------------------|
-----------------------------------------------------------|

Someone please tab more stuff by the get up kids
Comments