Get Up Kids - Shorty Chords & Tabs

 

Shorty Chords & Tabs

Get Up Kids Chords & Tabs

Version: 1 Type: Tab 0 ratings
1 star 2 stars 3 stars 4 stars 5 stars
comments

Shorty Tab

   
SHORTY - The Get Up Kids

By: Jon
                      () means if you want to you can do this

    Bm          D             Bm             A/G          G
e|---------------------------------------------------------------------------|
B|-(3)---------(7)-----------(3)--------------2------------------------------|
G|--4-----------7-------------4---------------2----------(4)-----------------|
D|--4-----------7-------------4---------------2-----------5------------------|
A|--2-----------5-------------2---------------------------5------------------|
E|--------------------------------------------3-----or----3------------------|
  Then the second time after "G" do this:
    A         G
e|---------------------------------------------------------------------------|
B|---------------------------------------------------------------------------|
G|-(6)-------(4)-------------------------------------------------------------|
D|--7---------5--------------------------------------------------------------|
A|--7---------5--------------------------------------------------------------|
E|--5---------3--------------------------------------------------------------|

The next verse after the "A" down to "G" do this:
     G        Bm
e|---------------------------------------------------------------------------|
B|-----------(3)-------------------------------------------------------------|
G|--(2)-------4--------------------------------------------------------------|
D|---5--------4----------5-4-5-7-7-5-4---------------------------------------|
A|---5--------2---------(0 0 0 0 0 0 0)--------------------------------------|
E|---3-----------------------------------------------------------------------|
[ Tab from: http://www.guitartabs.cc/tabs/g/get_up_kids/shorty_tab.html ]
Solo:
e|---------------------------------------------------------------------------|
B|-----8p7h8p7-8/10-8-7-7/8-7------------------------------------------------|
G|----------------------------7-7/9-9\7-4------------------------------------|
D|---------------------------------------------------------------------------|
A|---------------------------------------------------------------------------|
E|---------------------------------------------------------------------------|

After that:
    F#   G
e|---------------------------------------------------------------------------|
B|---------------------------------------------------------------------------|
G|---------------------------------------------------------------------------|
D|--4----5-------------------------------------------------------------------|
A|--4----5-------------------------------------------------------------------|
E|--2----3-------------------------------------------------------------------|

After that I think you go back to the intro/beginning part but then:
     D     E     Bm    G
e|---------------------------------------------------------------------------|
B|--(7)---(9)---(3)----------------------------------------------------------|
G|---7-----9-----4----(4)----------------------------------------------------|
D|---7-----9-----4-----5-----------------------------------------------------|
A|---5-----7-----2-----5-----------------------------------------------------|
E|---------------------3-----------------------------------------------------|

At the end there's this palm mute thing i think you just do the chords but just
keep hitting the strings a d g.  I didn't tab out the rythm, just listen to 
the CD and you'll
be able to tell what i mean.

That's it.  Not too hard.  If anyone knows where I can fin anymore tabs by 
The Get Up Kids, mail me at J182R@aol.com.
Comments