Get Up Kids - Overdue Chords & Tabs

 

Overdue Chords & Tabs

Get Up Kids Chords & Tabs

Version: 2 Type: Bass Tab 0 ratings
1 star 2 stars 3 stars 4 stars 5 stars
comments

Overdue Bass Tab

Verse

G|--------------------|
D|-------------4------|
A|2-x5------2-x-------|
E|-----3-x3------3----|x3

Or hit the low F# if you want

Quick Pre-chorus

G|--------|
D|--------|
A|--2-4-5-|
E|3-------|

Chorus
[ Tab from: http://www.guitartabs.cc/tabs/g/get_up_kids/overdue_btab_ver_2.html ]
G|----------------------------------------|
D|------------------------------2-5-4-2---|
A|5---5-4-2---2---2-5-------2-5---------2-|
E|--5-----------2-----3---3---------------|

Bridge

G|-----------------------------------------|
D|---4---4-2---------------------2-5-4-2---|
A|-----4-----5--5---5-4------2-5---------2-|
E|2---------------5-----3--3---------------|
Comments