Get Up Kids - Out Of Reach Chords & Tabs

 

Out Of Reach Chords & Tabs

Get Up Kids Chords & Tabs

Version: 2 Type: Tab 0 ratings
1 star 2 stars 3 stars 4 stars 5 stars
comments

Out Of Reach Tab

#----------------------------------PLEASE NOTE---------------------------------#
#This file is the author's own work and represents their interpretation of the #
#song. You may only use this file for private study, scholarship, or research. #
#------------------------------------------------------------------------------##

ARTIST: the get up kids
ALBUM: something to write home about
SONG: out of reach
BY: james

e---------------------------------------------------------------------
b---------------------------------------------------------------------
g--4-4-4-4----4-4-4-4----8-8-8-8---------------------------------------
d--4-4-4-4----4-4-4-4----8-8-8-8----6-6-6-6-6----2-2-2-2----4-4-4-4-4--
a--2-2-2-2----4-4-4-4----6-6-6-6----6-6-6-6-6----2-2-2-2----4-4-4-4-4--  
E-------------2-2-2-2---------------4-4-4-4-4----0-0-0-0----2-2-2-2-2--

 1. long way from home______________
[ Tab from: http://www.guitartabs.cc/tabs/g/get_up_kids/out_of_reach_tab_ver_2.html ]
e--------------------------------------------------------------------
b--------------------------------------------------------------------
g---------------------------------------------------------6-6--------
d---6-6-6-6----9-9-9--------------2------4--4---4-------------4------
a---6-6-6-6----9-9-9--------2-------2----4--4-----4-----4------------
E---4-4-4-4----7-7-7----2-1-0-0------0---2--2-------2----------------

  
              
            


e---------------------------------------------------------------------
b---------------------------------------------------------------------
g---------------------------------------------------------------------
d---6-6-6----2-2-2-2--2-2-2-------4-4-4-4--4-4-4-4--------------------
a---6-6-6----2-2-2-2--2-2-2-------4-4-4-4--4-4-4-4--REPEAT------------
E---4-4-4----0-0-0-0--0-0-0-------2-2-2-2--2-2-2-2--------------------
       
               


CHORUS:
        theres room__________

       
   THATS IT , SORRY I COULDENT TABB THE CHORUS BUT IT'S THE SAME
   CHORDS DURING THE VERSES. THE GET UP KIDS CAME FROM KANSAS AND 
   MY FRIEND WENT TO SCHOOL WITH THEM AT OLATHE SOUTH HIGH SCHOOL
   I THOUGHT THAT WAS COOL.  
               ANY QUESTIONS, COMMENTS, OR REQUESTS EMAIL ME AT
                            REWCREW@KCNET.COM  
Comments