Get Up Kids - No Love Chords & Tabs

 

No Love Chords & Tabs

Get Up Kids Chords & Tabs

Version: 1 Type: Tab 0 ratings
1 star 2 stars 3 stars 4 stars 5 stars
comments

No Love Tab

   
---------------------------------------------------------------------------
			     No Love - Get Up Kids
---------------------------------------------------------------------------
Tabbed by:nofxmike	
Email:someone028@excite.com
album: four minute mile
intro: 

Tuning:standard
   guitar 1:
e|-------------------------------------------------------------------------|
B|------8---7-------7------------------------------------------------------|
G|---7----7-------7---7--6-6-6-6--7-7-7-0--------0---------0--------0------|
D|-----------------------0-0-0-0--0-0-0-0--9-9-9-7---7-7-7-4-4-4-4--5-5-5-5|
A|-------------------------------------------------------------------------|
E|-------------------------------------------------------------------------|


    If I gave everything                  would you still listen to me?
e|-------------------------------------------------------------------------|
B|------8---7-------7------------------------------------------------------|
G|---7----7-------7---7--6-6-6-6--7-7-7-0--------0---------0--------0------|
D|-----------------------0-0-0-0--0-0-0-0--9-9-9-7---7-7-7-4-4-4-4--5-5-5-5|
A|-------------------------------------------------------------------------|
E|-------------------------------------------------------------------------|
     guitar 2:                                            
e|-------------------------------------------------------------------------|
B|--7------------------------------7---------------------------------------|
G|--7----------------7--6----------7------------7-7-7-9-9-9-11-7-----------|
D|--7---------------------7--------7------------x-x-x-x-x-x-x--x-----------|
A|--5------------------------------5------------5-5-5-7-7-7-9--5-----------|
E|-------------------------------------------------------------------------|

Prechorus:
   It could be so much better than this
e|-----------------------------------------|
B|-----------------------------------------|
G|-7-7-7-7-9-9-9-9-11-11-11-11-12-12-12-12-|
D|-x-x-x-x-x-x-x-x-x--x--x--x--x--x--x--x--|
A|-5-5-5-5-7-7-7-7-9--9--9--9--10-10-10-10-|
E|-----------------------------------------|

                         e|--------------------------|
                         B|--------------------------|
                         G|-14-14-14-14-14-14-14-14--|
                         D|-x--x--x--x--x--x--x--x---|
                         A|-12-12-12-12-12-12-12-12--|
                         E|--------------------------|2nd time only
 Chorus:
                  And   I   don't
e|----------------------------------|
B|----------------------------------|
G|--7-7-7-7-7-7-7-7-7-7-7-7-7-7-7-7-|
D|--7-7-7-7-7-7-7-7-7-7-7-7-7-7-7-7-|
A|--5-5-5-5-5-5-5-5-5-5-5-5-5-5-5-5-|
E|----------------------------------|

                     want   you        
e|----------------------------------|
B|----------------------------------|
G|--7--9--11-11-11-11-11-11-11-11-11|
D|--7--9--11-11-11-11-11-11-11-11-11|
A|--5--7--9--9--9--9--9--9--9--9--9-|
E|----------------------------------|

          to love me anymore
e|----------------------------------|
B|----------------------------------|
G|----------------------------------|
D|--9-9-9-9-7-7-7-7-7-7-5-5-5-5-5-5-|
A|--9-9-9-9-7-7-7-7-7-7-5-5-5-5-5-5-|
E|--7-7-7-7-5-5-5-5-5-5-3-3-3-3-3-3-|(repeat chorus)(last time go to ending)

bridge 1:

     than enough
e|-------------------------------|
B|-------------------------------|
G|-------------------------------|
D|---5-5-5-5-5-5-5-4-4-4-4-4-4-4-|
A|---5-5-5-5-5-5-5-4-4-4-4-4-4-4-|
E|---3-3-3-3-3-3-3-2-2-2-2-2-2-2-|
PM  |----------------------------|

    I can't be held accountable
e|-------------------------------|
B|-------------------------------|
G|-------------------------------|
D|---5-5-5-5-5-5-5-4-4-4-4-4-4-4-|
A|---5-5-5-5-5-5-5-4-4-4-4-4-4-4-|
E|---3-3-3-3-3-3-3-2-2-2-2-2-2-2-|
PM  |----------------------------|

    If you can't make up your mind
e|-------------------------------|
B|-------------------------------|
G|-------------------------------|
D|---5-5-5-5-5-5-5-4-4-4-4-4-4-4-|
A|---5-5-5-5-5-5-5-4-4-4-4-4-4-4-|
E|---3-3-3-3-3-3-3-2-2-2-2-2-2-2-|
PM  |----------------------------|

e|----------------------------------|
B|----------------------------------|
G|----------------------------------|
D|--7-7-7-7-7-7-7-7-7-7-7-7-7-7-7-7-|
A|--7-7-7-7-7-7-7-7-7-7-7-7-7-7-7-7-|
E|--5-5-5-5-5-5-5-5-5-5-5-5-5-5-5-5-|

post bridge breakdown:

   Tonight
e|-------------------------|
B|-------------------------|
G|-7--7--11--11--8--8--6--6|
D|-7--7--11--11--9--9--7--7|
A|-5--5--9---9---9--9--7--7|
E|-5--5--9---9---7--7--5--5|
   .  .  .  .    .  .  .  .  

as much as I would like to  
e|----------------------------------|
B|----------------------------------|
G|----------------------------------|
D|--5-5-5-5-5-5-5-7-7-7-7-7-7-7-7-7-|
A|--5-5-5-5-5-5-5-7-7-7-7-7-7-7-7-7-|
E|--3-3-3-3-3-3-3-5-5-5-5-5-5-5-5-5-|

  get with my hands all over you
e|-------------------------|
B|-------------------------|
G|-7--7--11--11--8--8--6--6|
D|-7--7--11--11--9--9--7--7|
A|-5--5--9---9---9--9--7--7|
E|-5--5--9---9---7--7--5--5|
   .  .  .  .    .  .  .  .  
          
e|----------------------------------|
B|----------------------------------|
G|----------------------------------|
D|--5-5-5-5-5-5-5-7-7-7-7-7-7-7-7-7-|
A|--5-5-5-5-5-5-5-7-7-7-7-7-7-7-7-7-|
E|--3-3-3-3-3-3-3-5-5-5-5-5-5-5-5-5-|

     If I
e|-------------------------|
B|-------------------------|
G|-7--7--11--11--8--8--6--6|
D|-7--7--11--11--9--9--7--7|
A|-5--5--9---9---9--9--7--7|
E|-5--5--9---9---7--7--5--5|
   .  .  .  .    .  .  .  .                        play this fill here
                         e|-------------|
                         B|-------------|
                         G|-9-9-9-12-11-|
                         D|-x-x-x-x--x--|
                         A|-7-7-7-10-9--|
                         E|-------------|x2
[ Tab from: http://www.guitartabs.cc/tabs/g/get_up_kids/no_love_tab.html ]
       Put myself in that position
e|----------------------------------|
B|----------------------------------|
G|----------------------------------|
D|--5-5-5-5-5-5-5-7-7-7-7-7-7-7-7-7-|
A|--5-5-5-5-5-5-5-7-7-7-7-7-7-7-7-7-|
E|--3-3-3-3-3-3-3-5-5-5-5-5-5-5-5-5-|
                       play this fill here  

                           myself to
                         e|--------------------------|
                         B|--------------------------|
                         G|-9-9-9-12-11-14--12--11--9|
                         D|-x-x-x-x--x--x---x---x---x|
                         A|-7-7-7-10-9--12--10--9---7|
                         E|--------------------------|x2
bridge 2: 

       be immune to you
e|-------------------------------|
B|-------------------------------|
G|-------------------------------|
D|---5-5-5-5-5-5-5-4-4-4-4-4-4-4-|
A|---5-5-5-5-5-5-5-4-4-4-4-4-4-4-|
E|---3-3-3-3-3-3-3-2-2-2-2-2-2-2-|

     to keep my heart from breaking
e|-------------------------------|
B|-------------------------------|
G|-------------------------------|
D|---5-5-5-5-5-5-5-4-4-4-4-4-4-4-|
A|---5-5-5-5-5-5-5-4-4-4-4-4-4-4-|
E|---3-3-3-3-3-3-3-2-2-2-2-2-2-2-|

    If you can't make up your mind
e|-------------------------------|
B|-------------------------------|
G|-------------------------------|
D|---5-5-5-5-5-5-5-4-4-4-4-4-4-4-|
A|---5-5-5-5-5-5-5-4-4-4-4-4-4-4-|
E|---3-3-3-3-3-3-3-2-2-2-2-2-2-2-|

e|----------------------------------|
B|----------------------------------|
G|----------------------------------|
D|--7-7-7-7-7-7-7-7-7-7-7-7-7-7-7-7-|
A|--7-7-7-7-7-7-7-7-7-7-7-7-7-7-7-7-|
E|--5-5-5-5-5-5-5-5-5-5-5-5-5-5-5-5-|

verse 1 repeat first line:

 guitar 1:             If I gave everything                If I gave everything
e|-------------------------------------------------------------------------|
B|------8---7-------7------------------------------------------------------|
G|---7----7-------7---7--6-6-6-6--7-7-7-0--------0---------0--------0------|
D|-----------------------0-0-0-0--0-0-0-0--9-9-9-7---7-7-7-4-4-4-4--5-5-5-5|
A|-------------------------------------------------------------------------|
E|-------------------------------------------------------------------------|
 guitar 2:let ring
e|-------------------------------------------------------------------------|
B|-7-----------------------------------------------------------------------|
G|-7-----------------------------------------------------------------------|
D|-7-----------------------------------------------------------------------|
A|-5-----------------------------------------------------------------------|
E|-------------------------------------------------------------------------|


     If I gave                 everything            If I gave 
e|-----------------------------------------|
B|-----------------------------------------|
G|-7-7-7-7-9-9-9-9-11-11-11-11-12-12-12-12-|
D|-x-x-x-x-x-x-x-x-x--x--x--x--x--x--x--x--|
A|-5-5-5-5-7-7-7-7-9--9--9--9--10-10-10-10-|
E|-----------------------------------------|

                         e|--------------------------|
                         B|--------------------------|
                         G|-14-14-14-14-14-14-14-14--|
                         D|-x--x--x--x--x--x--x--x---|
                         A|-12-12-12-12-12-12-12-12--|
                         E|--------------------------|2nd time only(to-chorus)
ENDING

           If I came home 
e|------------------|
B|------------------|
G|--7-7-7-7-7-7-7-7-|
D|--7-7-7-7-7-7-7-7-|
A|--5-5-5-5-5-5-5-5-|
E|------------------|

               one last time             
e|----------------------------------|
B|----------------------------------|
G|--7--9--11-11-11-11-11-11-11-11-11|
D|--7--9--11-11-11-11-11-11-11-11-11|
A|--5--7--9--9--9--9--9--9--9--9--9-|
E|----------------------------------|
           
          
e|------------------|
B|------------------|
G|--7-7-7-7-7-7-7-7-|
D|--7-7-7-7-7-7-7-7-|
A|--5-5-5-5-5-5-5-5-|
E|------------------|

                           
e|----------------------------------|
B|----------------------------------|
G|--7--9--11-11-11-11-11-11-11-11-11|
D|--7--9--11-11-11-11-11-11-11-11-11|
A|--5--7--9--9--9--9--9--9--9--9--9-|
E|----------------------------------|

    think of what the two of us could do
e|----------------------------------|
B|----------------------------------|
G|----------------------------------|
D|--9-9-9-9-7-7-7-7-7-7-5-5-5-5-5-5-|
A|--9-9-9-9-7-7-7-7-7-7-5-5-5-5-5-5-|
E|--7-7-7-7-5-5-5-5-5-5-3-3-3-3-3-3-|

e|---------------------------------|
B|---------------------------------|
G|---------------------------------|
D|--5-5--5---5-5--5--5-5--5--5-5--5|
A|--5-5--5---5-5--5--5-5--5--5-5--5|
E|--3-3--3---3-3--3--3-3--3--3-3--3|
PM |---|    |---|   |---|   |---|

           If I came home 
e|------------------|
B|------------------|
G|--7-7-7-7-7-7-7-7-|
D|--7-7-7-7-7-7-7-7-|
A|--5-5-5-5-5-5-5-5-|
E|------------------|

               one last time             
e|----------------------------------|
B|----------------------------------|
G|--7--9--11-11-11-11-11-11-11-11-11|
D|--7--9--11-11-11-11-11-11-11-11-11|
A|--5--7--9--9--9--9--9--9--9--9--9-|
E|----------------------------------|

think of what the two of us could 
e|--------------------------|
B|--------------------------|
G|--------------------------|
D|--9-9-9-9-7-7-7-7-7-7-5-5-|
A|--9-9-9-9-7-7-7-7-7-7-5-5-|
E|--7-7-7-7-5-5-5-5-5-5-3-3-|

    do
e|---------------------------------|
B|---------------------------------|
G|---------------------------------|
D|--5-5--5---5-5--5--5-5--5--5-5--5|
A|--5-5--5---5-5--5--5-5--5--5-5--5|
E|--3-3--3---3-3--3--3-3--3--3-3--3|

  I guess we'll never know
e|---------------------------------|
B|---------------------------------|
G|---------------------------------|
D|--9-9-9-9-7-7-7-7-7-7-5---------=|
A|--9-9-9-9-7-7-7-7-7-7-5-=--------|
E|--7-7-7-7-5-5-5-5-5-5-3-let ring=|
Comments