Get Up Kids - Long Goodnight Chords & Tabs

 

Long Goodnight Chords & Tabs

Get Up Kids Chords & Tabs

Version: 1 Type: Tab 0 ratings
1 star 2 stars 3 stars 4 stars 5 stars
comments

Long Goodnight Tab

tab by:xjakex

artist:Get Up Kids
tab:Long Goodnight

this is really a cool song

i'm not 100% sure about this,but hey!


~ - let it ring
p - pull


intro & verse:

(every attempt to...)
e|-----0---7-5-4---0---5-4--------------
B|---------------7----------7-4-5-------
G|--------------------------------------
D|-------------------------------------- 
A|--------------------------------------  
E|--------------------------------------   
(is filled with holes...)                                          
e|-----0---7-5-4---0---5-4--------------     
B|---------------7----------7-9---------     
G|--------------------------------------    
D|--------------------------------------   
A|--------------------------------------  
E|-------------------------------------- 

e|-----0---7-5-4---0--5-4---------------
B|---------------7--------7-5-9-7-------
G|--------------------------------------
D|--------------------------------------
A|--------------------------------------
E|--------------------------------------


(i'm not better anyway....)
2nd guitar
e|--------------------------------------
B|--------------------------------------
G|-444444444---------4444---------------
D|-4444444447777777774444---------------
A|-2222222227777777772222---------------
E|----------555555555-------------------

then repeat verse

(sing a long goodnight...)
e|----------12p9-7----------------------
B|--------------------------------------
G|-------------------------------------- (5x)
D|--------------------------------------
A|--------------------------------------
E|--------------------------------------
[ Tab from: http://www.guitartabs.cc/tabs/g/get_up_kids/long_goodnight_tab.html ]
(if it all ended tonight...)
e|-------------------------------------------------      ------
B|-------------------------------------------------      ------
G|------------------88888888-66666666-44444444----- (4x) ------(2x) let it 
D|77777777-44444444-xxxxxxxx-xxxxxxxx-xxxxxxxx-----      -3~---     ring
A|77777777-44444444-66666666-44444444-22222222-----      -3~---
E|55555555-22222222--------------------------------      -5~---

(sing a long goodnight...)

(this two notes played together after the 2nd "sing a long..." part)

(keyboard or piano arranged for guitar):

e|----12-11-------------9---------------12-11------11~--
B|----------12-9-10--12---12-11-9-10-10------12-10-12~--
G|------------------------------------------------------ (2x) solo
D|------------------------------------------------------ 
A|------------------------------------------------------
E|------------------------------------------------------

e|----------12p9-7----------------------
B|--------------------------------------
G|-------------------------------------- (5x)
D|--------------------------------------
A|--------------------------------------
E|--------------------------------------

(i hang on...)

e|--------------    
B|--------------
g|7~------------
D|7~------------    
A|5~------------
E|--------------


e|--------------
B|--------------
G|--------------
D|2~------------
A|2~------------
E|0~------------


Every attempt to... is filled with holes 
it reads like a polygraph i'm told 
i'm not better anyway 
let it go 

i never sleep still less i forget 
tied down by handicaps instead 
i'm not better anyway, but i didn't want it to turn out this way 
sing a long goodnight, forget any fight 
refuse to rest assured 
it comes with no reply 
hold on too tight 
i hang on every word 

if it all ended tonight, you know that i wouldn't mind 
it'd be back to the good old times before it won.

sing a long goodnight, forget any fight 
refuse to rest assured 
it comes with no reply 
hold on too tight 
i hang on every word.
===========================================
Comments