Get Up Kids - Lion And The Lamb Chords & Tabs

 

Lion And The Lamb Chords & Tabs

Get Up Kids Chords & Tabs

Version: 1 Type: Tab

Lion And The Lamb Tab

Well, i couldnt get the strumming to sound anything like the song, so i didnt tab 
i didnt want to give you a wrong guitar tab. Anyway i couldnt find this tab on this site, so i 
an intro atleast.

Title: Lion And The Lamb.
Band: The Get Up Kids.
Album: Rock Against Bush Vol.1

[ Tab from: http://www.guitartabs.cc/tabs/g/get_up_kids/lion_and_the_lamb_tab.html ]
Intro
E|--11--------------------------------|
B|------10--10-10-10--12--------------|
G|------------------------------------|
D|------------------------------------|
A|------------------------------------|
E|------------------------------------|


Also repeats again in one of the verses:

E|--11--------------------------------|
B|------10--10-10-10--12--------------|
G|------------------------------------|
D|------------------------------------|
A|------------------------------------|
E|------------------------------------|


And thats all i could do....sorry.