Get Up Kids - Let The Reigns Go Loose Chords & Tabs

 

Let The Reigns Go Loose Chords & Tabs

Get Up Kids Chords & Tabs

Version: 1 Type: Bass Tab 0 ratings
1 star 2 stars 3 stars 4 stars 5 stars
comments

Let The Reigns Go Loose Bass Tab

Tabbed by Eric Eysermans (undercitylights@hotmail.com)

Standard tuning.

There are a lot of variations (as well as ghost notes) in each part everytime they're
played, but this should give you the general idea.

INTRO

G|--------------------------------------|
D|--------------------------------------|
A|-0--------0-------------3-2-0----0----|
E|-------------------1-----------3------|

G|-------14-16---14------------14-16---17-16--------------------|
D|-----14-----------14------14-----------------3----------------|
A|-0--------------------0---------------------------3-2-0----0--|
E|---------------------------------------------------------3----|

G|-------7-5-4-5---------------------------------------------|
D|-5--------------3-----3----5--------5--3-------------------|
A|------5--------------3-----------5----------3--2--0--------|
E|-----------------------------------------------------------|

G|-----------------------------------------------------------|
D|------------------------------------5---5-7----------------|
A|-0---------------------------------------------------------|
E|-----------------------------------------------------------|

VERSE
[ Tab from: http://www.guitartabs.cc/tabs/g/get_up_kids/let_the_reigns_go_loose_btab.html ]
G|--------------------------------------------------------|
D|-------------------------5-7--7-7-----------------------|
A|-0-0----7-7----0-0-----7-------------7-7----5-5---3-5-7-|
E|--------------------------------------------------------|

-----------------------------------------------------------|
-------------------------------------------------------5-7-|
-8-----------8-8------8--7----0-0----7-7----0-0----0-7-----|
------8-8-----------8--------------------------------------|

CHORUS

G|-----------------------------------------------------------|
D|-5-5-----------5-5-------------3------3--------------------|
A|--------5-5-----------5-5----3------3------3-3----2--------|
E|-----------------------------------------------------------|

OUTRO

G|---------------------------------------------|
D|---------------------------------------------|
A|-0------------7-------------------5-5---3----|
E|----------------------1---3---3--------------|

G|---------------------------------------------------------------------|
D|-------------------------7-----7-----7-----7-------------------------|
A|-3---0-3---0-3---0-3---7-----7-----7-----7-----0-7---0-7---0-7---0-7-|
E|---------------------------------------------------------------------|

G|-----------------(2)------|
D|--------------------------|
A|-------------5-5-----3----|
E|-1---3---3----------------|
Comments