Get Up Kids - Hannah Hold On Chords & Tabs

 

Hannah Hold On Chords & Tabs

Get Up Kids Chords & Tabs

Version: 1 Type: Tab 0 ratings
1 star 2 stars 3 stars 4 stars 5 stars
comments

Hannah Hold On Tab

   
#----------------------------------PLEASE NOTE---------------------------------#
#This file is the author's own work and represents their interpretation of the #
#song. You may only use this file for private study, scholarship, or research. #
#------------------------------------------------------------------------------##

HANNAH HOLD ON:.
by THE GET  UP KIDS
released on "ON A WIRE" LP, 2002
Tabbed by Xander Hendrickson [ahendrickson@standrews-de.org]
4/4; Acoustic guitar; Standard Tuning EADGBe
     Electric lead guitar NOT TABBED

There are alot of chords I'm not sure about.  I'm just posting to get the
ball rolling  on tabbing  this song,  because I desparately  want to know
how to play it and there are no tabs out yet..................Hendrickson

(the words at the bottom should help with the rhythm)
INTRO
e-----------------4-------5-------
B-9-------10------4-------5-------
G-9-------9-------4-------6-------
D-9-------7-------6-------7-------
A-7-------9-------6-------7-------
E-0-------7-------4-------5-------
  E       B7sus4  G#m     A

VERSE
e-----------------4-------5-------5-------2-----------------------
B-9-------10------4-------5-------5-------2-------9-------10--9---
G-9-------9-------4-------6-------6-------2-------9-------9---9---
D-9-------7-------6-------7-------7-------4-------9-------9---9---
A-7-------9-------6-------7-------7-------4-------7-------7---7---
E-0-------7-------4-------5-------5-------2-------0-------0---0---
  E       B7sus4  G#m     A       A       F#m     E        

BRIDGE
e-----------------4-------------------------------4---------------
B-----------------5-------4-----------------------5-------4-------
G-6---------------6-------4-------6---------------6-------4-------
D-7-------6-------6-------4-------7-------6-------6-------4-------
A-7-------7-------4-------2-------7-------7-------4-------2-------
E-5-------4-----------------------5-------4-----------------------
  A       G#m6    C#m     B       A       G#m6    C#m     B
[ Tab from: http://www.guitartabs.cc/tabs/g/get_up_kids/hannah_hold_on_tab.html ]
e-----------------4-----------------------------------------------
B-----------------5-------4-----------------------9-------5---4---
G-6---------------6-------4-------6---------------9---8---6---4---
D-7-------6-------6-------4-------7-------6-------9---9---6---4---
A-7-------7-------4-------2-------7-------7-------7---6---4---2---
E-5-------4-----------------------5-------4-----------------------
  A       G#m6    C#m     B       A       G#m6    E   D#m C#m B

e-0-------------------------------
B-2---------------4---------------
G-2---------------4---------------
D-2---------------4---------------
A-0---------------2---------------
E---------------------------------
  A               B

CHORUS
e---------4-------4-------5---------------4-------4-------5-------
B-9-------5-------4-------5-------9-------5-------4-------5-------
G-9-------6-------4-------6-------9-------6-------4-------6-------
D-9-------6-------6-------7-------9-------6-------6-------7-------
A-7-------4-------6-------7-------7-------4-------6-------7-------
E-0---------------4-------5-------0---------------4-------5-------
  E       C#m     G#m     A       E       C#m     G#m     A

e---------4-------4-------5-------0---------------0---------------
B-9-------5-------4-------5-------0---------------0---------------
G-9-------6-------4-------6-------8---------------6---------------
D-9-------6-------6-------7-------9---------------7---------------
A-7-------4-------6-------7-------9---------------7---------------
E-0---------------4-------5-------7---------------5---------------
  E       C#m     G#m     A       B               A

BREAK
e-2---4---5---7---4---------------2-------5-------4---------------
B-2---4---5---7---5-------4-------2-------5-------5-------4-------
G-2---4---6---8---6-------4-------2-------6-------6-------4-------
D-4---6---7---9---6-------4-------4-------7-------6-------4-------
A-4---6---7---9---4-------2-------4-------7-------4-------2-------
E-2---4---5---7-------------------2-------5-----------------------
  F#m G#m A   B   C#m     B       F#m     A       C#m     B

e-2---4---5---7---4---------------2---4---5---7---
B-2---4---5---7---5-------4-------2---4---5---7---
G-2---4---6---8---6-------4-------2---4---6---8---
D-4---6---7---9---6-------4-------4---6---7---9---
A-4---6---7---9---4-------2-------4---6---7---9---
E-2---4---5---7-------------------2---4---5---7---
  F#m G#m A   B   C#m     B       F#m G#m A   B
Comments