Get Up Kids - Central Standard Time Chords & Tabs

 

Central Standard Time Chords & Tabs

Get Up Kids Chords & Tabs

Version: 2 Type: Tab 0 ratings
1 star 2 stars 3 stars 4 stars 5 stars
comments

Central Standard Time Tab

Written by Jacky Wong
(lonely_mage@hotmail.com)   


-----------------------------
This is definitely one of my favourite songs
but couldn't find any complete tabs for this
so I made one myself.

I'm sure that this tab for the main guitar
is 100% right.

If there are any major errors though please
tell me about it
----------------------------


**There is a lot of sliding towards the middle part
where the power chords are.



Central Standard Time
--------------------------


E|----0-----0-----------0----|
B|----3-----3-----------3----|
G|----0-----0-----4-----0----|
D|----2-----2-----4-----2----|
A|----3-----2-----2-----3----|
E|----0-----------------0----|

x4

Cold October fall,
At the outside of a VFW hall,
I said I minded distance
but distance would define us, define us all.

A tree in Nichol's Park,
I carved a broken heart (carved a broken heart)


E|-0-----0--------------------|
B|-3-----3--------------------|
G|-0-----0-----4----------5---|
D|-2-----2-----4-----5----5---|
A|-3-----2-----2-----5----3---|
E|-0-----------------3--------|

I said I minded distance
But distance owned us from the start.


E|----------------------------------------------------------------------------------|
B|----------------------------------------------------------------------------------|
G|--9-------4-------5---7---5----------7---6---7--------9---7---9-------------------|
D|--9-------4-------5---7---5----------7---6---7--------9---7---9-------5---4---5---|
A|--7-------2-------3---5---3----------5---4---5--------7---5---7-------5---4---5---|
E|----------------------------------------------------------------------3---2---3---|

It's every song, every song.
There's dividing lines between east and standard time,


E|------------------------------|
B|------------------------------|
G|---------5---------7----------|
D|---------5---------7----------|
A|---------3---------5----------|
E|------------------------------|

Promise me, you'll still be mine.


|Break|

E|----0-----0-----------0----|
B|----3-----3-----------3----|
G|----0-----0-----4-----0----|
D|----2-----2-----4-----2----|
A|----3-----2-----2-----3----|
E|----0-----------------0----|

x2

Cold October fall,
At the outside of a VFW hall,


E|-0-----0--------------------|
B|-3-----3--------------------|
G|-0-----0-----4----------5---|
D|-2-----2-----4-----5----5---|
A|-3-----2-----2-----5----3---|
E|-0-----------------3--------|
[ Tab from: http://www.guitartabs.cc/tabs/g/get_up_kids/central_standard_time_tab_ver_2.html ]
I said I minded distance
but distance would define us all.


E|------------------------------------------------------------------------|
B|------------------------------------------------------------------------|
G|--9-----7---5-------4---5-------------4---9-------7---5------4---5------|
D|--9-----7---5-------4---5---------5---4---9-------7---5------4---5------|
A|--7-----5---3-------2---3---------5---2---7-------5---3------2---3------|
E|----------------------------------3-------------------------------------|

Will this come between us? As I doubt
All of the pages I pour out.
When our doubt becomes regret,
Don't ever forget...


E|----------------------------------------------|
B|----------------------------------------------|
G|---------4----5---------5----7----12----------|
D|----5----4----5----5----5----7----12----------|
A|----5----2----3----5----3----5----10----------|
E|----3--------------3--------------------------|

My only,
You own me,
If you'd only see.


|Break|

E|------------------------------------------------------------|
B|------------------------------------------------------------|
G|---------4----5----7----8---------5----7----9----4----12----|
D|----5----4----5----7----8----5----5----7----9----4----12----|
A|----5----2----3----5----6----5----3----5----7----2----10----|
E|----3------------------------3------------------------------|

We've forgotten how, she says:
"Will this come between us?",
As I doubt all of the pages I pour out.
When our doubt becomes regret,
Don't ever, never forget...


E|----------------------------------------------------------------------------------------|
B|----------------------------------------------------------------------------------------|
G|----5---7---5--------7---6---7--------9---7---9-------------------------5------7--------|
D|----5---7---5--------7---6---7--------9---7---9--------5---4---5--------5------7--------|
A|----3---5---3--------5---4---5--------7---5---7--------5---4---5--------3------5--------|
E|-------------------------------------------------------3---2---3------------------------|

x2

There's dividing lines between east and standard time,
Promise me... you'll still be mine.
There's dividing lines between east and standard time,
Promise me... you'll still be mine.


E|------------------------------|
B|------------------------------|
G|---------5---------7----------|
D|---------5---------7----------|
A|---------3---------5----------|
E|------------------------------|

Promise me... you'll still be mine.
Comments