Get Up Kids - Central Standard Time Chords & Tabs

 

Central Standard Time Chords & Tabs

Get Up Kids Chords & Tabs

Version: 1 Type: Tab 0 ratings
1 star 2 stars 3 stars 4 stars 5 stars
comments

Central Standard Time Tab

Artist: The Get Up Kids

Song: Central Standard Time


Intro

Cold October Fall.....
---------------------------------------
---------------------------------------
---5-----------------------------------
---5------5-------9-------3------------
---3------5-------9-------3------------
----------3-------7-------3------------



Chorus
[ Tab from: http://www.guitartabs.cc/tabs/g/get_up_kids/central_standard_time_tab.html ]
Cause' Every song....
------------------------------------
------------------------------------
--5---------------------------------
--5----3------5---------------------
--3----3------5---------------------
-------3------3---------------------


mid solo..
--------------------------------------
--------------------------------------
--------------------------------------
--------------------------------------
--3333333-0-------------33333333------
-------------33333333-0---------------


this is my first tab so don't rag on me too hard.
any Q's,comments or corrections e-mail:
newfoundglory_kicks@yahoo.com
Comments