Get Up Kids - Campfire Kansas Chords & Tabs

 

Campfire Kansas Chords & Tabs

Get Up Kids Chords & Tabs

Version: 1 Type: Tab 0 ratings
1 star 2 stars 3 stars 4 stars 5 stars
comments

Campfire Kansas Tab

   
Title: Campfire Kansas
Group: The Get Up Kids
Tabbed By: Justin Beaubien
E-Mail: captain_commando_@hotmail.com


Happy Birthday Katie, I hope you enjoy this. It is right on the money. 
This is a fantastic song. All you really have to do learn how to play a 
power chord. There is only one chord that isn't, and it requires different
fingering (that was for your benefit).

It's impossible to show the strumming on a tab, so play these chords along 
with the song. The timing (beat) is right on as well.

Intro (2x)

e---------------------------------------
B---------------------------------------
G-7-7--7-7--6-6--6-6--------------------
D-7-7--7-7--7-7--7-7--5-5-5-5-5-5-5-5-5-
A-5-5--5-5--4-4--4-4--5-5-5-5-5-5-5-5-5-
E---------------------3-3-3-3-3-3-3-3-3-

e-------------------------------------------------------------
B-------------------------------------------------------------
G-7-7--7-7--6-6--6-6------------------------------------------
D-7-7--7-7--7-7--7-7--5-5-5-5-5-5-5-5-5--7-7-7-7-7-7-7-7-7-7-7
A-5-5--5-5--4-4--4-4--5-5-5-5-5-5-5-5-5--7-7-7-7-7-7-7-7-7-7-7
E---------------------3-3-3-3-3-3-3-3-3--5-5-5-5-5-5-5-5-5-5-5


Verse

e-----------------------------------------------------------------
B-----------------------------------------------------------------
G-7-7-7-7-7-7-7-7-6-6-6-6-6-6-6-6-4-4-4-4-4-4-4-4-----------------

D-7-7-7-7-7-7-7-7-7-7-7-7-7-7-7-7-4-4-4-4-4-4-4-4-5-5-5-5-5-5-5-5-
A-5-5-5-5-5-5-5-5-4-4-4-4-4-4-4-4-2-2-2-2-2-2-2-2-5-5-5-5-5-5-5-5-
E-------------------------------------------------3-3-3-3-3-3-3-3-

[ Tab from: http://www.guitartabs.cc/tabs/g/get_up_kids/campfire_kansas_tab.html ]
e-----------------------------------------------------------------
B-----------------------------------------------------------------
G-7-7-7-7-7-7-7-7-6-6-6-6-6-6-6-6-4-4-4-4---------4-4-4-4---------
D-7-7-7-7-7-7-7-7-7-7-7-7-7-7-7-7-4-4-4-4-5-5-5-5-4-4-4-4-5-5-5-5-
A-5-5-5-5-5-5-5-5-4-4-4-4-4-4-4-4-2-2-2-2-5-5-5-5-2-2-2-2-5-5-5-5-
E-----------------------------------------3-3-3-3---------3-3-3-3-

PreChorus (2x)

e---------------------------------
B---------------------------------
G-4-4-----7-7---------------------
D-4-4-5-5-7-7-7-7-5-5-5-5-5-5-5-5-
A-2-2-5-5-5-5-7-7-5-5-5-5-5-5-5-5-
E-----3-3-----5-5-3-3-3-3-3-3-3-3-

Verse 

Prechorus (2x)

Chorus

e---------------------------------
B---------------------------------
G-4-4-----7-7-----4-4-----7-7-----
D-4-4-5-5-7-7-7-7-4-4-5-5-7-7-7-7-
A-2-2-5-5-5-5-7-7-2-2-5-5-5-5-7-7-
E-----3-3-----5-5-----3-3-----5-5-

e---------------------------------
B---------------------------------
G-4-4-----7-7---------------------
D-4-4-5-5-7-7-7-7-5-5-5-5-5-5-5-5-
A-2-2-5-5-5-5-7-7-5-5-5-5-5-5-5-5-
E-----3-3-----5-5-3-3-3-3-3-3-3-3-

Bridge

e---------------------------------
B---------------------------------
G-------------------------7-7-7-7-
D-7-7-7-7-7-7-7-7-5-5-5-5-7-7-7-7-
A-7-7-7-7-7-7-7-7-5-5-5-5-5-5-5-5-
E-5-5-5-5-5-5-5-5-3-3-3-3---------

e---------------------------------
B---------------------------------
G---------------------------------
D-7-7-7-7-7-7-7-7-5-5-5-5-5-5-5-5-
A-7-7-7-7-7-7-7-7-5-5-5-5-5-5-5-5-
E-5-5-5-5-5-5-5-5-3-3-3-3-3-3-3-3-

Verse 

PreChorus(2x)

Chorus



Comments