Get Up Kids - Beer For Breakfast Chords & Tabs

 

Beer For Breakfast Chords & Tabs

Get Up Kids Chords & Tabs

Version: 1 Type: Tab 0 ratings
1 star 2 stars 3 stars 4 stars 5 stars
comments

Beer For Breakfast Tab

   
BEER FOR BREAKFAST - Get Up Kids

by Ryan Johnson
Dysphoria00@hotmail.com

First and Second Intro:

guitar 1 (distortion on):
Bb5------Eb5----Ab5----Eb5----Bb5-----Eb5----Ab5----Eb5

-----------------------------------------------------------
-----------------------------------------------------------
---------8-8-8---------8-8-8----------8-8-8---------8-8-8--
-8-8-8-8-8-8-8--6-6-6--8-8-8--8-8-8-8-8-8-8--6-6-6--8-8-8--
-8-8-8-8-6-6-6--6-6-6--6-6-6--8-8-8-8-6-6-6--6-6-6--6-6-6--
-6-6-6-6--------4-4-4---------6-6-6-6--------4-4-4---------

guitar 2 (distortion on):
-----------------------------------------------------------
-----------------------------------------------------------
-----------------------------------------------------------
-------------8-------------8--------------8-------------8--
-----8-8-6-6--------6--6-6--------8-8-6-6--------6--6-6----
-6-6------------4-4-----------6-6------------4-4----------- 

First and Second Verses ("All I wanna do..."):

both guitars:
Bb5
----
----
----
-8--
-8--
-6--

    then ("...breakfast. All I wanna eat..." or "...line. All I wanna pick..."):
[ Tab from: http://www.guitartabs.cc/tabs/g/get_up_kids/beer_for_breakfast_tab.html ]
both guitars:
Bb5--------------------------F5
                             * (drums out, first time through in each verse)
--------------------------------
--------------------------------
--------------------------------
-8--8--8--8--8--8--8--8--8---3--
-8--8--8--8--8--8--8--8--8---3--
-6--6--6--6--6--6--6--6--6---1--

repeat this part until...

    last time through ("...fect us."):

both guitars:
Bb5
----------------------------
----------------------------
----------------------------
-8--8--8--8--8--8--8--8--8--
-8--8--8--8--8--8--8--8--8--
-6--6--6--6--6--6--6--6--6-- 

First and Second Choruses ("[?]" or "Honey, [?]..."):

both guitars:
Ab-------Eb--Db--Eb-Db/Eb          Ab------Eb--Db--Eb-Db/Eb

--------------------------------------------------------------------
--------------------------------------------------------------------
---------8-6-8-6-8-6-8-6-8-6-8-6-----------8-6-8-6-8-6-8-6-8-6-8-6--
-6-6-6-6-8-6-8-6-8-6-8-6-8-6-8-6---6-6-6-6-8-6-8-6-8-6-8-6-8-6-8-6--
-6-6-6-6-6-6-4-4-6-6-6-6-6-6-6-6---6-6-6-6-6-6-4-4-6-6-6-6-6-6-6-6--
-4-4-4-4---------------------------4-4-4-4-------------------------- 

Outro (drums out; "All I wanna do is drink beer for breakfast."):

both guitars:
Bb5----------------Ab5/A
                   *(drums in)
------------------------
------------------------
------------------------
-8\---------------------
-8\----------------6-6--
-6\----------------5-5--
Comments