Get Up Kids - Anne Arbour Chords & Tabs

 

Anne Arbour Chords & Tabs

Get Up Kids Chords & Tabs

Version: 1 Type: Tab 0 ratings
1 star 2 stars 3 stars 4 stars 5 stars
comments

Anne Arbour Tab

ANNE ARBOUR - The Get Up Kids

Tabbed by:FroggieInABox@aol.com

Intro/Verse:
E------------------------------------
B---9-9-----9-9-----9-9-----9--------
G--9-9-9-9-9-9-9-9-9-9-9-9----9------
D-9-----9-9-----9-9-----9-9-----9----
A------------------------------------
E------------------------------------

Pre-Chorus:
E----------------------------------------------------
B----------------------------------------------------
G--------6-4--------9-9--------6-4-------------------
D--7-6---6-4--7-6---9-9--7-6---6-4---7-6---2---------
A--7-6---4-2--7-6---7-7--7-6---4-2---7-6---2---------
E--5-4--------5-4--------5-4---------5-4---0---------
[ Tab from: http://www.guitartabs.cc/tabs/g/get_up_kids/anne_arbour_tab.html ]
Chorus:
E--------------------------------------------------------------------
B--------------------------------------------------------------------
G---6---------------------------6-----------------------9------------
D---6---7---2---6---7---4---2---6---7---2---6---7---4---9------------
A---4---7---2---6---7---4---2---4---7---2---6---7---4---7------------
E-------5---0---4---5---2---0-------5---0---4---5---2----------------

Post-Chorus:
E---------------------------------------------------
B---------------------------------------------------
G---9-----------------------------------------------
D---9---------------7-------------------------------
A---7---------------7-------------------------------
E-------------------5-------------------------------

Bridge:
E---------------------------------------------------
B---------------------------------------------------
G---9---11-----9---11-----9---11--------------------
D---9---9------9---9------9---9-----7---------------
A---7---7------7---7------7---7-----7---------------
E-----------------------------------5---------------

Interlude:
E---------------------------------------------------
B---------------------------------------------------
G-------6---4---2-------6---4---2-------------------
D---6---6---4---2---6---6---4---2-------------------
A---6---4---2---0---6---4---2---0-------------------
E---4---------------4-------------------------------

Play Chorus, End on E
Comments