Get Up Kids - Action And Action Chords & Tabs

 

Action And Action Chords & Tabs

Get Up Kids Chords & Tabs

Version: 1 Type: Tab 0 ratings
1 star 2 stars 3 stars 4 stars 5 stars
comments

Action And Action Tab

Action and Action - The Get Up Kids  
By:Andrew Mcshan(Guitarguyx182@aol.com)

Intro: 
---------------------4---5---- 
------------2--------4---5---- 
--6----4----2----1---4---6---- 
--6----4----2----2---6---7---- 
--4----2---------2---6---7---- 
-------------------0---4---5-- 

---------------------4---5---- 
------------2--------4---5---- 
--6----4----2----1---4---6---- 
--6----4----2----2---6---7---- 
--4----2---------2---6---7---- 
-------------------0---4---5-- 

Guitar 2 Plays This
--------------------------------- 
--------------------------------- 
--9-----8---6----9---13---9------ 
--x-----x---x----x---x----x------ 
--7-----6---4----7---11---7------ 
--------------------------------- 

Verse: 
------------------------- 
------------------------- 
--1---------------------- 
--2-------------------6-- 
--2-------------------6-- 
----------------------4-- 
(Guitar 2)
------------------------------------------------- 
--------9--10--9---------9----------------------- 
-----9-------------------9---11--9----9h11------- 
--9-------------------9-----------------9-------- 
------------------------------------------------- 
------------------------------------------------- 

------------------------ 
------------------------ 
------------------------ 
-7------------------10-- 
-7------------------10-- 
-5-------------------8-- 
(Guitar 2)
--------------------------------------------------------------- 
--------9--10--12----------9----------------------------------- 
-----9-------------------9---11--9----9h11-----11----11---etc-- 
--9-------------------9---------------9---------9-----9---etc-- 
--------------------------------------------------------------- 
--------------------------------------------------------------- 

Pre-chorus: 
--4---2---0---0---4----5---- 
--5---4---2---0---4----5---- 
--6---4---2---1---4----6---- 
--6---4---2---2---6----7---- 
--4---2---0---2---6----7---- 
----------------0---4----5-- 

Chorus: 
-0----4---5---7---0----4---5---2---0---4-----5---7-- 
-0----4---5---7---0----4---5---2---0---4-----5---7-- 
-1----4---6---8---1----5---6---2---1---4-----6---8-- 
-2----6---7---9---2----6---7---4---2---6-----7---9-- 
-2----6---7---9---2----6---7---4---2---6-----7---9-- 
-0----4---5---7---0----4---5---2---0---4-----5---7-- 
[ Tab from: http://www.guitartabs.cc/tabs/g/get_up_kids/action_and_action_tab.html ]
-5---7----8-- 
-5---7----8-- 
-6---8----9-- 
-7---9---10-- 
-7---9---10-- 
-5---7----8-- 

(Guitar 2)
--12-11-----12-11---------etc------- 
---------12-------12------etc------- 
------------------------------------ 
------------------------------------ 
------------------------------------ 
------------------------------------ 

Bridge: 
-----------------------------------------------------------2-2-- 
-------5-4--------4-5----------4-5-4----------4-4-5------------- 
-----4-----------4-----4------4-------4------4------------------ 
---2-----------2-------------2--------------2------------------- 
-4-----------0-------------------------------------------------- 
-----------------------------0--------------4------------------- 

--4-------0----0-------4-- 
--5-------2----0-------4-- 
--6-------2----1-------4-- 
--6-------2----2-------6-- 
--4-------0----2-------6-- 
---------------0-------4-- 

--------------------------- 
--------------------------- 
-4--(4)/6\4---------------- 
-x---x--x-x----7\6--6/7/9-- 
-2--(2)/4\2----x-x--x-x-x-- 
---------------5\4--4/5/7-- 

-0---2--- 
-2---4--- 
-2---4--- 
-2---4--- 
-0---2--- 
--------- 

(Guitar 2)
--12-11-----12-11---------etc------- 
----------12--------12------etc----- 
------------------------------------ 
------------------------------------ 
------------------------------------ 
------------------------------------ 

-0---2------3------- 
-2---4------5------- 
-2---4------5------- 
-2---4------5------- 
-0---2------3------- 
-------------------- 

------------11-12-11-------------------- 
------9-12------------12------9-12------ 
----9-------------------------9--------- 
---------------------------------------- 
---------------------------------------- 
---------------------------------------- 

Chorus
-0----4---5---7---0----4---5---2---0---4-----5---7-- 
-0----4---5---7---0----4---5---2---0---4-----5---7-- 
-1----4---6---8---1----5---6---2---1---4-----6---8-- 
-2----6---7---9---2----6---7---4---2---6-----7---9-- 
-2----6---7---9---2----6---7---4---2---6-----7---9-- 
-0----4---5---7---0----4---5---2---0---4-----5---7-- 

-5---7----8---9-- 
-5---7----8---9-- 
-6---8----9---9-- 
-7---9---10--11-- 
-7---9---10--11-- 
-5---7----8---9-- 

(Guitar 2)
--12-11-----12-11---------12------- 
----------12--------12------------- 
----------------------------------- 
----------------------------------- 
----------------------------------- 
-----------------------------------
Comments