Get Scared - Sarcasm Chords & Tabs

 

Sarcasm Chords & Tabs

Get Scared Chords & Tabs

Version: 3 Type: Bass Tab 0 ratings
1 star 2 stars 3 stars 4 stars 5 stars
comments

Sarcasm Bass Tab

   
-------------------------------------------------------------------------------
			     SARCASM - Get Scared.
-------------------------------------------------------------------------------

Tabbed By : mariewong.





Tuning: Drop D.





Verse [00:18]

G|-----------------------------------------------------|
D|------0-2-3-------0-3-2-0---------0-0-2--------------|
A|--------------------------3---1-1---------0-0-4-4-5--|
D|--0-0---------0-0------------------------------------|

G|----------------------------------------------------|
D|------0-2-3-------0-3-2-0---------0-0-2-------------|
A|--------------------------3---1-1-------------------|
D|--0-0---------0-0-------------------------5--8--7\--|



Pre-chorus [00:34]

G|----------------------------------------------|
D|------0-2-3-------0-3-2-0---------0-0-2-------|
A|--------------------------3---1-1---------4\--|
D|--0-0---------0-0-----------------------------|



Chorus [00:39]

G|----------------------------------------------------|
D|----------------------------------------------------|
A|--------------------------------------------4-4-44--|
D|--00000887---55555332---00000887---5--5-5-5---------|

G|----------------------------------------------------|
D|----------------------------------------------------|
A|--------------------------------------------4-4-44--|
D|--00000887---55555332---00000887---5--5-5-5---------|



Verse [01:00]
 
G|-------------------------------------------------------------------|
D|-------------------------------------------------------------------|
A|-------------------------------------------------------------------|
D|--0-0-0-0-0-0-0-2---8-8-8-8-7-7-7-7---0-0-0-0-0-0-0-2---8-8-8-8-7\-|

G|-----------------------------------------------------|
D|------0-2-3-------0-3-2-0---------0-0-2--------------|
A|--------------------------3---1-1---------0-0-4-4-5--|
D|--0-0---------0-0------------------------------------|
[ Tab from: http://www.guitartabs.cc/tabs/g/get_scared/sarcasm_btab_ver_3.html ]
G|------------------------------------------------------|
D|------0-2-3-------0-3-2-0---------0-0-2---------------|
A|--------------------------3---1-1---------4--4--------|
D|--0-0---------0-0-------------------------------5--5--|



Chorus [01:23]

G|----------------------------------------------------|
D|----------------------------------------------------|
A|--------------------------------------------4-4-44--|
D|--00000887---55555332---00000887---5--5-5-5---------|

G|----------------------------------------------------|
D|----------------------------------------------------|
A|--------------------------------------------4-4-44--|
D|--00000887---55555332---00000887---5--5-5-5---------|



Bridge [01:44]

G|------------------------------------------|
D|------------------------------------------|
A|------------------------------------------|
D|--0~---8~---5~---0(x16)--8(x8)--5(x8)--0--|

G|-------------------------------------------------------------|
D|-------------------------------------------------------------|
A|-------------------------------------------------------------|
D|--1-111-111-111-11-x1-x1-x1-x1---5(x8)--8(x8)--4(x8)--0(x8)--|

G|---------------------------------------------------------|
D|---------------------------------------------------------|
A|---------------------------------------------------------|
D|--1-111-111-111-11-x1-x1-x1-x1---0(x6)--5(x10)----0~--0--|



Chorus [02:30]

G|--------------------------------------------------------|
D|--------------------------------------------------------|
A|------------------------------------------------4-4-44--|
D|--xx--00000887---55555332---00000887---5--5-5-5---------|

G|----------------------------------------------------|
D|----------------------------------------------------|
A|--------------------------------------------4-4-44--|
D|--00000887---55555332---00000887---5--5-5-5---------|

G|----------------------------------------------------|
D|----------------------------------------------------|
A|--------------------------------------------4-4-45--|
D|--00000887---55555332---00000887---5--5-5-5---------|

G|------------|
D|------------|
A|------------|
D|--8-5-7-0~--|





| /  slide up
| \  slide down
| h  hammer-on
| p  pull-off
| ~  vibrato
| +  harmonic
| x  Mute note
===============================================================================
Comments