Get Scared - For You Chords & Tabs

 

For You Chords & Tabs

Get Scared Chords & Tabs

Version: 1 Type: Bass Tab 0 ratings
1 star 2 stars 3 stars 4 stars 5 stars
comments

For You Bass Tab

0:00 Intro
F|-----------------------------------------------------------------|
C|-----------------------------------------------------------------|
G|---------------------------------------------------------------3-|
C|-5-----5-5-----5---5---5-5---0---2-----2-2-----2---2---2-2-------|
   1 + 2 + 3 + 4 + 1 + 2 + 3 + 4 + 1 + 2 + 3 + 4 + 1 + 2 + 3 + 4 +

F|-----------------------------------------------------------------|
C|-----------------------------------------------------------------|
G|-----------------------------------------------------------------|
C|-5-----5-5-----5---5---5-5---0---2-----2-2-----2\\\\-------------|
   1 + 2 + 3 + 4 + 1 + 2 + 3 + 4 + 1 + 2 + 3 + 4 + 1 + 2 + 3 + 4 +

0:11 Verse
F|---------------------------------------------------------------------------|
C|o-------------------------------------------------------------------------o|
G|o---------------------------------2---3-------3-3---3---------------------o|
C|------2-------2-2-----0---0---0-0-----------------------5--5--5-5-4--------|x2
        1 + 2 + 3 + 4 + 1 + 2 + 3 + 4 + 1 + 2 + 3 + 4 + 1 + 2 + 3 + 4 +

0:23 Pre-Chorus
F|-----------------------------------------------------------------|
C|-----------------------------------------------------------------|
G|-----------------------------2---3-----------3-------------------|
C|-2-----------2---0-------------------------------5-------5---4---|
   1 + 2 + 3 + 4 + 1 + 2 + 3 + 4 + 1 + 2 + 3 + 4 + 1 + 2 + 3 + 4 +

F|-----------------------------------------------------------------|
C|-----------------------------------------------------------------|
G|-----------------------------2---3-----------3-------------------|
C|-2-----------2---0-------------------------------5\\\------------|
   1 + 2 + 3 + 4 + 1 + 2 + 3 + 4 + 1 + 2 + 3 + 4 + 1 + 2 + 3 + 4 +

0:34 Chorus
F|-----------------------------------------------------------------|
C|-----------------------------------------------------------------|
G|-------------------------------------------------------------2---|
C|-5---5-5-5---5-5-5---5-5-5---0---2---2-2-2---2-2-2---2-2-2-------|
   1 + 2 + 3 + 4 + 1 + 2 + 3 + 4 + 1 + 2 + 3 + 4 + 1 + 2 + 3 + 4 +

F|-----------------------------------------------------------------|
C|-----------------------------------------------------------------|
G|-3---3-3-3---3-3-3---3-3-3---3---5---5-5-5---5-5-5---5-5-5---5-5-|
C|-----------------------------------------------------------------|
   1 + 2 + 3 + 4 + 1 + 2 + 3 + 4 + 1 + 2 + 3 + 4 + 1 + 2 + 3 + 4 +

F|-----------------------------------------------------------------|
C|-----------------------------------------------------------------|
G|-------------------------------------------------------------2---|
C|-5---5-5-5---5-5-5---5-5-5---0---2---2-2-2---2-2-2---2-2-2-------|
   1 + 2 + 3 + 4 + 1 + 2 + 3 + 4 + 1 + 2 + 3 + 4 + 1 + 2 + 3 + 4 +

F|-----------------------------------------------------------------|
C|-----------------------------------------------------------------|
G|-3---3-3-3---3-3-3---3-3-3---3---5---5-5-5---5-5-5---3---2---0---|
C|-----------------------------------------------------------------|
   1 + 2 + 3 + 4 + 1 + 2 + 3 + 4 + 1 + 2 + 3 + 4 + 1 + 2 + 3 + 4 +

0:58
F|-----------------------------------------------------------------|
C|-----------------------------------------------------------------|
G|-----------------------------------------------------------------|
C|-5-----5-5-----5---5---5-5---0---2-----2-2-----2\\\\-------------|
   1 + 2 + 3 + 4 + 1 + 2 + 3 + 4 + 1 + 2 + 3 + 4 + 1 + 2 + 3 + 4 +

1:03 Verse
F|--------------------------------------------------------------------------|
C|o------------------------------------------------------------------------o|
G|o-------------------------------------3---3---3---3----------------------o|
C|------2---2---2---2---0---0---0---0-------------------5---5---5---4-------|x2
        1 + 2 + 3 + 4 + 1 + 2 + 3 + 4 + 1 + 2 + 3 + 4 + 1 + 2 + 3 + 4 +

1:15 Pre-Chorus
F|-----------------------------------------------------------------|
C|-----------------------------------------------------------------|
G|-----------------------------2---3-----------3-------------------|
C|-2-----------2---0-------------------------------5-------5---4---|
   1 + 2 + 3 + 4 + 1 + 2 + 3 + 4 + 1 + 2 + 3 + 4 + 1 + 2 + 3 + 4 +

F|-----------------------------------------------------------------|
C|-----------------------------------------------------------------|
G|-----------------------------2---3-----------3---5---3---2---0---|
C|-2-----------2---0-----------------------------------------------|
   1 + 2 + 3 + 4 + 1 + 2 + 3 + 4 + 1 + 2 + 3 + 4 + 1 + 2 + 3 + 4 +

1:26 Chorus
F|-----------------------------------------------------------------|
C|-----------------------------------------------------------------|
G|-------------------------------------------------------------2---|
C|-5---5-5-5---5-5-5---5-5-5---0---2---2-2-2---2-2-2---2-2-2-------|
   1 + 2 + 3 + 4 + 1 + 2 + 3 + 4 + 1 + 2 + 3 + 4 + 1 + 2 + 3 + 4 +
[ Tab from: http://www.guitartabs.cc/tabs/g/get_scared/for_you_btab.html ]
F|-----------------------------------------------------------------|
C|-----------------------------------------------------------------|
G|-3---3-3-3---3-3-3---3-3-3---3---5---5-5-5---5-5-5---5-5-5---5-5-|
C|-----------------------------------------------------------------|
   1 + 2 + 3 + 4 + 1 + 2 + 3 + 4 + 1 + 2 + 3 + 4 + 1 + 2 + 3 + 4 +

F|-----------------------------------------------------------------|
C|-----------------------------------------------------------------|
G|-------------------------------------------------------------2---|
C|-5---5-5-5---5-5-5---5-5-5---0---2---2-2-2---2-2-2---2-2-2-------|
   1 + 2 + 3 + 4 + 1 + 2 + 3 + 4 + 1 + 2 + 3 + 4 + 1 + 2 + 3 + 4 +

F|-----------------------------------------------------------------|
C|-----------------------------------------------------------------|
G|-3---3-3-3---3-3-3---3-3-3---3---5---5-5-5---5-5-5---3---2---0---|
C|-----------------------------------------------------------------|
   1 + 2 + 3 + 4 + 1 + 2 + 3 + 4 + 1 + 2 + 3 + 4 + 1 + 2 + 3 + 4 +

1:49 Bridge x2
F|-------------------------------------------------------------------|
C|o------------------------------------------------------------------|
G|o----7---7-7-7---7-7-7---7-7-7---7---3---3-3-3---3-3-3---3-3-3---3-|
C|-------------------------------------------------------------------|
       1 + 2 + 3 + 4 + 1 + 2 + 3 + 4 + 1 + 2 + 3 + 4 + 1 + 2 + 3 + 4 +

F|-------------------------------------------------------------------|
C|------------------------------------------------------------------o|
G|------------------------------------------------------------------o|
C|-5---5-5-5---5-5-5---5-5-5---5---4---4-4-4---4-4-4---4-4-4---4-----|
   1 + 2 + 3 + 4 + 1 + 2 + 3 + 4 + 1 + 2 + 3 + 4 + 1 + 2 + 3 + 4 +

2:13 Solo
F|-----------------------------------------------------------------|
C|-----------------------------------------------------------------|
G|---------------------------------3---3-3-3---3-3-3---3-3-3---3---|
C|-2---2-2-2---2-2-2---2-2-2---2-----------------------------------|
   1 + 2 + 3 + 4 + 1 + 2 + 3 + 4 + 1 + 2 + 3 + 4 + 1 + 2 + 3 + 4 +

F|-----------------------------------------------------------------|
C|-----------------------------------------------------------------|
G|-----------------------------------------------------------------|
C|-5---5-5-5---5-5-5---5-5-5---5---4---4-4-4---4-4-4---4-4-4---4---|
   1 + 2 + 3 + 4 + 1 + 2 + 3 + 4 + 1 + 2 + 3 + 4 + 1 + 2 + 3 + 4 +

Rest

2:36 Pre-Chorus
F|-----------------------------------------------------------------|
C|-----------------------------------------------------------------|
G|-------------------------------------------------------------2---|
C|-5---------------------------0---2-------------------------------|
   1 + 2 + 3 + 4 + 1 + 2 + 3 + 4 + 1 + 2 + 3 + 4 + 1 + 2 + 3 + 4 +

F|-----------------------------------------------------------------|
C|-----------------------------------------------------------------|
G|-3---------------------------3---5---------------5---3---2---0---|
C|-----------------------------------------------------------------|
   1 + 2 + 3 + 4 + 1 + 2 + 3 + 4 + 1 + 2 + 3 + 4 + 1 + 2 + 3 + 4 +

F|---------------------------------|
C|---------------------------------|
G|-5---3---2---0---------------0---|
C|-----------------0---2---4-------|
   1 + 2 + 3 + 4 + 1 + 2 + 3 + 4 +

2:50 Chorus
F|-----------------------------------------------------------------|
C|-----------------------------------------------------------------|
G|-------------------------------------------------------------2---|
C|-5---5-5-5---5-5-5---5-5-5---0---2---2-2-2---2-2-2---2-2-2-------|
   1 + 2 + 3 + 4 + 1 + 2 + 3 + 4 + 1 + 2 + 3 + 4 + 1 + 2 + 3 + 4 +

F|-----------------------------------------------------------------|
C|-----------------------------------------------------------------|
G|-3---3-3-3---3-3-3---3-3-3---3---5---5-5-5---5-5-5---5-5-5---5-5-|
C|-----------------------------------------------------------------|
   1 + 2 + 3 + 4 + 1 + 2 + 3 + 4 + 1 + 2 + 3 + 4 + 1 + 2 + 3 + 4 +

F|-----------------------------------------------------------------|
C|-----------------------------------------------------------------|
G|-------------------------------------------------------------2---|
C|-5---5-5-5---5-5-5---5-5-5---0---2---2-2-2---2-2-2---2-2-2-------|
   1 + 2 + 3 + 4 + 1 + 2 + 3 + 4 + 1 + 2 + 3 + 4 + 1 + 2 + 3 + 4 +

F|-----------------------------------------------------------------|
C|-----------------------------------------------------------------|
G|-3---3-3-3---3-3-3---3-3-3---3---5---5-5-5---5-5-5---3---2---0---|
C|-----------------------------------------------------------------|
   1 + 2 + 3 + 4 + 1 + 2 + 3 + 4 + 1 + 2 + 3 + 4 + 1 + 2 + 3 + 4 +

3:13 Outro
F|-----------------------------------------------------------------|
C|-----------------------------------------------------------------|
G|---------------------------------------------------------------3-|
C|-5-----5-5-----5---5---5-5---0---2-----2-2-----2---2---2-2-------|
   1 + 2 + 3 + 4 + 1 + 2 + 3 + 4 + 1 + 2 + 3 + 4 + 1 + 2 + 3 + 4 +

F|-------------------------------------------------------------------|
C|-------------------------------------------------------------------|
G|-------------------------------------------------------------0-----|
C|-5-----5-5-----5---5---5-5---0---2-----2-2-----2---2---2-2-------5-|
   1 + 2 + 3 + 4 + 1 + 2 + 3 + 4 + 1 + 2 + 3 + 4 + 1 + 2 + 3 + 4 + 1

Tabbed By Jack Mills
Comments