Geri Halliwell - Look At Me Chords & Tabs

 

Look At Me Chords & Tabs

Geri Halliwell Chords & Tabs

Version: 1 Type: Tab 0 ratings
1 star 2 stars 3 stars 4 stars 5 stars
comments

Look At Me Tab

   

Look at me
Geri Halliwell- Look at Me

This songs crap but I'm bored.

Normal tuning (EADGBE)

Opening bass/synth line (sounds WAY too much like Propellorhead's 
"History Repeating")

-------------------------------
-------------------------------
-------------------------------
-------------------------------
---------5--7-*pause*----------
--5--7~5---------------5-7-5--- *repeats*

Verse: Just kind of tap this chord 
(F 1)
---1--------------
---1--------------
---2--------------
---3--------------
---3--------------
---1--------------

and occasionally tap on C for a bit but this is only a suggestion.


Chorus:
[ Tab from: http://www.guitartabs.cc/tabs/g/geri_halliwell/look_at_me_tab.html ]
----------------------------------------------------
----------------------------------------------------
----------------------------------------------------
----------------------------------------------------
--3(bend when she says "looooook...")--3~5-(play the 3 when she says "at"
---------------------------------------------------- and the 5 when she says
							"me")



The piano bit is just:

--5-55----6--6---------
--5-55----8--8---------
--6-66----8--8---------
--7-77----8--8---------
--7-77----6--6---------
--5-55-----------------

Bad song but you might be able to impress your 6 year old sister who is
into Spice Girls...

~Ned
Comments