George Thorogood - Move It On Over Chords & Tabs

 

Move It On Over Chords & Tabs

George Thorogood Chords & Tabs

Version: 2 Type: Tab

Move It On Over Tab

   
***************
Move It On Over
***************
By George Thorogood 

Album: Move it on over

I made this tab a little to complicated. Guitar 1 isn’t that important.


This is the standard 12 bar blues in G:

G/G/G/G

C/C/G/G

D/C/G/D7


Guitar 1: Distorted, heavy palm muting throughout, fast
  G5 (for four bars)
e|------------------|--------------------|--------------------|---------------------||
B|------------------|--------------------|--------------------|---------------------||
G|------------------|--------------------|--------------------|---------------------||
D|------------------|--------------------|--------------------|---------------------||
A|--5—(5)7-(5)5—(5)7|—(5)5—(5)7—(5)5—(5)7|—(5)5—(5)7—(5)5—(5)7|-(5)5-(5)7—(5)5—(5)7-||
E|--3—-3-3--3-3--3-3|--3-3--3-3--3-3--3-3|--3-3--3-3--3-3--3-3|--3-3--3-3—-3-3--3-3-||
[ Tab from: http://www.guitartabs.cc/tabs/g/george_thorogood/move_it_on_over_tab_ver_2.html ]
  C5(two bars)                            G5(two bars)
e|------------------|--------------------|--------------------|---------------------||
B|------------------|--------------------|--------------------|---------------------||
G|------------------|--------------------|--------------------|---------------------||
D|5)5—(5)7—(5)7—(5)7|-(5)5—(5)7—(5)5—(5)7|--------------------|---------------------||
A|3-3—-3-3—-3-3—-3-3|—-3-3—-3-3—-3-3—-3-3|—(5)5—(5)7—(5)5—(5)7|-(5)5-(5)7—(5)5—(5)7-||
E|------------------|--------------------|--3-3--3-3--3-3--3-3|--3-3--3-3—-3-3--3-3-||
 
  D5(one bar)         C5(one bar)         G5(two bars)                      D5
e|------------------|--------------------|--------------------|---------------------||
B|------------------|--------------------|--------------------|---------------------||
G|------------------|--------------------|--------------------|--------------7------||
D|7)7—(7)9—(7)7—(7)9|-(5)5—(5)7—(5)5—(5)7|--------------------|------------ -7------||
A|5-5—-5-5—-5-5—-5-5|—-3-3—-3-3—-3-3—-3-3|—(5)5—(5)7—(5)5—(5)7|-(5)5-(5)7—-x-5—-----||
E|------------------|--------------------|--3-3--3-3--3-3--3-3|--3-3--3-3—-x--------||



Guitar 2: distorted, loud

Guitar two is quiet but plays a little bit of G during the first four bars
Here’s the last eight bars:
   C (2 bars)                G (2 bars)              D (1 bar)  C (1 bar)
e|---------------------------------------------------------------------------|
B|---------------------------------------------------------------------------|
G|---5-------5-----5----------------------------------7----7----5---5--------|
D|---5-------5-----5------------5---------5----5------7----7----5---5--------|
A|-3---3-3h5-----3--------------5---------5----5------5----5----3---3--------|
E|----------------------------3----3-3h5-----3-------------------------------|
  G(1.5 bars)                  D
e|--------------------------------------------------------------------------|
B|--------------------------------------------------------------------------|
G|---4----3----2----0-----0----7------7\------------------------------------|
D|-----------------------------7------7\------------------------------------|
A|/5--5-4--4-3--3-2---2-2---2-/5------5-------------------------------------|
E|--------------------------------------------------------------------------|

I also figured out one of the solos but its really hard to transcribe. 
If you want I can give you the basic outline of it

Adam B.
Questions to Atwbthe3rd@yahoo.com