George Thorogood - Move It On Over Chords & Tabs

 

Move It On Over Chords & Tabs

George Thorogood Chords & Tabs

Version: 1 Type: Tab 0 ratings
1 star 2 stars 3 stars 4 stars 5 stars
comments

Move It On Over Tab

   
-------------------------------------------------------------------------------
			     Move it on over - George Thorogood
-------------------------------------------------------------------------------

By:Zero is great man
Standard Tunning: EADGBe
Played with distortion


I know this version is just rough at the moment, but when i figure out more,
I will add more.

Guitar 2:Play this in this order throughout the song.
   Gm                Gm              Cm                Gm
e|---------------------------------------------------------------------------|
B|---------------------------------------------------------------------------|
G|--------------------------------------2---2---2---2------------------------|
D|---2---2---2---2---2---2---2---2----5---5---5---5------2---2----2--2-------|
A|-5---5---5---5---5---5---5---5---5--3-3-3-3-3-3-3-3--5---5---5---5---------|
E|-3-3-3-3-3-3-3-3-3-3-3-3-3-3-3-3-3-------------------3-3-3-3-3-3-3-3-------|

   Dm               Cm               Gm
e|---------------------------------------------------------------------------|
B|---------------------------------------------------------------------------|
G|---4---4---4---4----2---2---2---2------------------------------------------|
D|-7---7---7---7----5---5---5---5------2---2---2---2---2---2---2---2---------|
A|-5-5-5-5-5-5-5-5--3-3-3-3-3-3-3-3--5---5---5---5---5---5---5---5-----------|
E|-----------------------------------3-3-3-3-3-3-3-3-3-3-3-3-3-3-3-3---------|
[ Tab from: http://www.guitartabs.cc/tabs/g/george_thorogood/move_it_on_over_tab.html ]
Guitar 1: Verse
   Cm       Gm       Dm       Cm       Gm
e|---------------------------------------------------------------------------|
B|---------------------------------------------------------------------------|
G|-5-5-5-5-----------7-7-7-7--5-5-5-5------------------------------5/7-------|
D|-5-5-x-5--5-5-5-5--7-7-7-7--5-5-5-5--5-5-5-5--3-3-3-3-2-2-2-2-0--x/x-------|
A|-3-3-3-3--5-5-x-5--5-5-5-5--3-3-3-3--5-5-5-5---------------------3/5-------|
E|----------3-3-3-3--------------------3-3-3-3-------------------------------|

Guitar 1:verse(ok when he says certain stuff)
   Gm                       Gm
e|--------------------|   |-----|
B|--------------------|   |-----|
G|--------------------|   |-----|
D|-x-x-x-x-5----------|   |-5-5-|
A|-x-x-x-x-5----------|   |-5-5-|
E|-x-x-x-x-3----------|   |-3-3-|
..scratching flea's...    ...my back door...(2nd time)

Guitar 1: Fig 1(ok, I don't know when this happens in the song, but its here)
   Gm                      Cm                       Gm
e|---------------------------------------------------------------------------|
B|---------------------------------------------------------------------------|
G|---------------------------------------------------------------------------|
D|---------------------------------------------------------------------------|
A|-15-15-15-15-15-15-15-15--17-17-17-17-17-17-17-17-15-15-15-15-15-15-15-15--|
E|---------------------------------------------------------------------------|
   Dm      Cm        Gm
e|---5-0-----3---------------------------------------------------------------|
B|-3-----2-----2-------------------------------------------------------------|
G|---------5-----2-5-------------------5/7-----------------------------------|
D|-------------------3-3-3-3-2-2-2-2-0-x/x-----------------------------------|
A|-------------------------------------3/5-----------------------------------|
E|---------------------------------------------------------------------------|

well that's all I got for now, enjoy.

===============================================================================
Comments