George Michael - Faith Chords & Tabs

 

Faith Chords & Tabs

George Michael Chords & Tabs

Version: 1 Type: Tab 0 ratings
1 star 2 stars 3 stars 4 stars 5 stars
comments

Faith Tab

   
          "Faith" 
          by George Michaels 
          tabbed by Dominic Rinaldi. 
 
          Set your amp on a clean tangy sound, or play acoustic 
 
          Standard Tuning 
 
          Intro: (and pretty much the whole song besides the Interude) 
              B 
          E---7--x-x-x--7--x-x--7-7--x--7--x-x-x-x--------- 
          B---7--x-x-x--7--x-x--7-7--x--7--x-x-x-x--------- 
          G---8--x-x-x--8--x-x--8-8--x--8--x-x-x-x--------- 
          D---9--x-x-x--9--x-x--9-9--x--9--x-x-x-x--------- 
          A---9--x-x-x--9--x-x--9-9--x--9--x-x-x-x--------- 
          E---7--x-x-x--7--x-x--7-7--x--7--x-x-x-x--------- 
 
          to form this easy bar chord place your index finger across the 7th fret, and 
then place your middle finger on the 8th fret, and finally just put your ring and 
pinky on the 9th fret just as so much you make a clean sound. 
 
          Some people have told me that it his hard to put enough pressure on the 
string. you can either get a lighter gauge string or put your thumb on the neck and 
squeeze hard. 
 
          Interlude: 
 
          this is a pretty easy pattern that moves up and down the neck. 
               "Well i need some time off" 
          E------------------------------------------------------- 
          B------8--------6--------7--------4--------5--------4--- 
          G--------9--------7--------8--------5---------6-------5- 
          D----9--------7--------8--------5--------6--------5----- 
          A--7--------5--------6--------3--------4--------3------- 
          E------------------------------------------------------- 
 
          That is pretty much it, x=mute, and the timing on the mutes might be a 
little off. if you have heard the song you should be able to adapt. 
 
          just to let you learn something the bar chord is a "B" and it's root note is 
on the low E string 
 
          Hope you like the tab 
 
          don't go crazy ont the E-mail but it is: 
 
 
           Alex0314@Raex.com
[ Tab from: http://www.guitartabs.cc/tabs/g/george_michael/faith_tab.html ]
Comments