George Michael - Careless Whispers Chords & Tabs

 

Careless Whispers Chords & Tabs

George Michael Chords & Tabs

Version: 1 Type: Tab 0 ratings
1 star 2 stars 3 stars 4 stars 5 stars
comments

Careless Whispers Tab

HI

Here is the tab for the  beautiful saxsofone:

/   : slide
( ) : hold the not a bit longer

Repeat twice in the begening
[ Tab from: http://www.guitartabs.cc/tabs/g/george_michael/careless_whispers_tab.html ]
e-/11-13p11-------13-(13)p11-------------------------------------------------|
b-----------11---------------11----14p12-------14-(14)p12----12p11-----------|
g--------------11---------------11-------11----------------11-------11-------|
d-------------------------------------------13-------------------------13----|
a-------------------------------------------------------------------------14-|
e----------------------------------------------------------------------------|


e---------------------------------------------------------------------------|
b----------------------11---------------------------------------------------|
g-------------10h11h13------------------------------------------------------|
d-------11h13---------------------------------------------------------------|
a-13h14---------------------------------------------------------------------|
e---------------------------------------------------------------------------|

Very easy ...

Thats it. Enjoy playing it clean,
Comments