George - Special Ones Chords & Tabs

 

Special Ones Chords & Tabs

George Chords & Tabs

Version: 1 Type: Tab 0 ratings
1 star 2 stars 3 stars 4 stars 5 stars
comments

Special Ones Tab

-----------------------------------------------------------------
                       GEORGE - SPECIAL ONES
                  from the album 'Polyserena' 2002
-----------------------------------------------------------------
                            tabbed by rob
                       robbit@freemail.com.au
              lyrics ?2001 Katie Noonan / Nick Stewart
-----------------------------------------------------------------


VERSE 1:
|-2-----2-----3p2--0-----0-------0--2-----2--3p2--2--5-3--|
|----0-----0----------3-----3--3-------0------------------|
|----------------------------------------------------6-4--|
|---------------------------------------------------------|
|-2-----2-----------------------------------------2-------|
|------------------4-----4-------4--3--------3------------|

Isn't it funny how you never really screamed at my face,
but your anger so unspoken and unchannelled permeates my essence to the point where
I Don't want to see you hear you, be anywhere near you,
you probably think I'm threatened by you but your illusionary power doesn't threaten me

Actually I think it's kind of funny that you create an illusion that is a mirror,
I don't appreciate you and I know that that surprises you
I suppose you see that those who follow their heart always win,
those with integrity have won the match before it's begun

CHORUS:
|-2-----2-----2--3p2--3-----2-0------0-----0-----0--2-----0----0-|
|----3-----3-------------1------1----------------------1-----1---|
|---------------------------------2-----4-----4------------------|
|-0-----0-----0--------------------------------------------------|
|---------------------0-----------------------------3-----3------|
|------------------------------------4-----4---------------------|
[ Tab from: http://www.guitartabs.cc/tabs/g/george/special_ones_tab.html ]
So rather than being kicked around, I'm going to kick you to the curb
So rather than being pushed around, I'm going to push you away first
So rather than trying to protect you, I'm going to cover my basses first
So rather than trying to open my heart, I'm going to lock it with a key
So that only the special ones can ever get through to me

VERSE 2:
Some can see beyond the barrier of threshold whereas others can't see beyond their sculptured mould,
you could offer me nothing, you could offer me nothing that I need
Do you think I'm asking too much? A kind of respect and trust that shouldn't even be questioned,
how can I open my heart with dishonesty sitting next to me?

I've honoured your honour to the point of embarrassment,
but innocence in the hands of the guilt-free is kicked to, is kicked to the curb
I was ashamed of my innocence, I was ashamed of my innocence
but now with clarity I see that your bullshit is just not worthy of me

CHORUS:
So rather than being kicked around, I'm going to kick you to the curb
So rather than being pushed around, I'm going to push you away first
So rather than trying to protect you, I'm going to cover my basses first
So rather than trying to open my heart, I'm going to lock it with a key
So that only the special ones can ever get through to me...

BRIDGE:
|-------------------------0--------1--|
|-------2--------3-----------------3--|
|----------------------------------4--|
|----2--------2--------2--------4-----|
|-------------------0--------2--------|
|-2--------3--------------------------|

I don't want to be angry....
This is not worthy of me and now with clarity I see that I can walk away, I can walk away

CHORUS:
So rather than being kicked around, I'm going to kick you to the curb
So rather than being pushed around, I'm going to push you away first
So rather than trying to protect you, I'm going to cover my basses first
So rather than trying to open my heart, I'm going to lock it with a key
So that only the special ones, so that only the special ones
Can ever get through to me
Comments