Genesis - Mama Chords & Tabs

 

Mama Chords & Tabs

Genesis Chords & Tabs

Version: 2 Type: Tab 0 ratings
1 star 2 stars 3 stars 4 stars 5 stars
comments

Mama Tab

ARTIST: Genesis
TITLE: Mama
ALBUM: Genesis [aka Shapes]
TABBED BY: Martin Kelly


INTRO
E---2------------------------2-2-2----3--5--7-------------------------0--------------------|
B---3------------------------3-3-3--2---------------------------------0--------------------|
G---2------------0---2--4----2-2-2---------------------7--------------1--------------------|
D---0------------------------0-0-0------------------------------------2--------------------|
A---------------------------------------------------------------------2--------------------|
E---------------------------------------------------------------------0--------------------|

VERSES 2, 3 & 4

E--3------2------3---7---2---10---3------2------0---0---3---0---0--------------------------|
B--0------3------0-------3--------0------3------1---1---0---1---0--------------------------|
G--0------2------0-------2--------0------2------0---2---0---2---1--------------------------|
D--0------0------0-------0--------0------0------2---2---0---2---2--------------------------|
A--2-------------2----------------2-------------3---0---2---0---2--------------------------|
E--3-------------3----------------3-------------0-------3-------0--------------------------|

MIDDLE
[ Tab from: http://www.guitartabs.cc/tabs/g/genesis/mama_tab_ver_2.html ]
E--0---0---3---0----3---2---0---3---0---2----3-----0---0---0---0---------------------------|
B--1---1---0---2----0---3---0---0---1---3----0-----0---1---1---0---------------------------|
G--0---2---0---2----0---2---0---0---2---2----0-----0---0---2---1---------------------------|
D--2---2---0---2----0---0---2---0---2---0----0-----2---2---2---2---------------------------|
A--3---0---2---0----2-------2---2---0--------2-----2---3---0---2---------------------------|
E--0-------3--------3-------0---3------------3-----0---0-------0---------------------------|

ENDING

E-------------------------------------------------------------------------------------------|
B------------------------17-17-17-17-17---------------12-12-----8-8-8--5-5--7-8--10-8--7--5-|
G--12---11-11-11--7-9-9---------------------------------------------------------------------|
D-------------------------------------------------------------------------------------------|
A-------------------------------------------------------------------------------------------|
E-------------------------------------------------------------------------------------------|

Fades out by this point

E------------------------------------------------------------------------------------------|
B------------------12-10-12--12--15--12--12--14--12----------------------------------------|
G--4-4--12-12--11--------------------------------------------------------------------------|
D------------------------------------------------------------------------------------------|
A------------------------------------------------------------------------------------------|
E------------------------------------------------------------------------------------------|

For a list of Easy Guitar Tabs, contact electricgod8512@aol.com
Comments