Genesis - For Absent Friends Chords & Tabs

 

For Absent Friends Chords & Tabs

Genesis Chords & Tabs

Version: 2 Type: Tab 0 ratings
1 star 2 stars 3 stars 4 stars 5 stars
comments

For Absent Friends Tab

Band Name: Genesis
Song Name: For absent friends
Tabbed By: Terry Sims (Masterofdarknes)
Email: Floyd_Fan89@teenspot.com


e|----------------------|
B|----3-2-3--5-7-5--3-2-|
G|--2-2------4------0---|
D|----0------5------2---|
A|-----------0------0---|
E|----------------------|


e|----2--------2---------2--------2-----------3---------3--------2-----------|
B|------3--------3---------3---------3-----------3---------3-----3-------0---|
G|--------2--------2---------2----------2----------0---------0---2---0-------|
D|--0-------0----------------------------------------------------4-0---2---4-|
A|--------------------4---------4----------3----------3----------2-----------|
E|---------------------------------------------------------------------------|


e|----------0----------------0-----------------0---------|
B|--------8---8------------8----8-----------10---10------|
G|------7-------7--------7--------7--------9--------9----|
D|----9-----------9----9------------9----11-----------11-|
A|-------------------------------------0-----------------|
E|--0---------------0------------------------------------|

[ Tab from: http://www.guitartabs.cc/tabs/g/genesis/for_absent_friends_tab_ver_2.html ]
e|--7-----5-----3----2-------0------0-----|
B|--8-----7-----3----3-------3------2-----|
G|--7-----7-----4----2-------0------0-----|
D|--0-----0-----0----0-------2------2-----|
A|----------------------------------0-----|
E|----------------------------------------|


e|--3-3-----3-----3-------3--------------------------------------|
B|--3---3-----3------3------3----------2-------2-------2-------2-|
G|--0-----0-----0------0------0-------4-------3-------4-------3--|
D|--2--------------------------------2-------2-------2-------2---|
A|--3------------------------------------------------------------|
E|---------------------------------2-------2-------2-------2-----|


e|-------------2-------------------2---------0-----------3--|
B|------4---------------4--------------------0-----------3--|
G|-----2-----2--------2---------2------------1-----------4--|
D|----4-----4-------4---------4--------------2---------5----|
A|--2------2------2---------2--------------2---------0------|
E|---------------------------------------0------------------|

e|--3--0-------------------0--0----|
B|-------2---3-2-3--5--7-5-3--2----|
G|---------2-2------4------0--0----|
D|-----------0------5------2--2--0-|
A|------------------0---------0----|
E|---------------------------------|
Comments