Genesis - Dusk Chords & Tabs

 

Dusk Chords & Tabs

Genesis Chords & Tabs

Version: 2 Type: Tab 0 ratings
1 star 2 stars 3 stars 4 stars 5 stars
comments

Dusk Tab

   
Genesis - The Dusk


   B                B(add E)         B                B(add E)
e |------------0---|------------0---|------------0---|------------0---|
B |--------4-----4-|--------4-----4-|--------4-----4-|--------4-----4-|
G |----4-----4-----|----4-----4-----|----4-----4-----|----4-----4-----|
D |--4---4---------|--4---4---------|--4---4---------|--4---4---------|
A |2---------------|2---------------|2---------------|2---------------|
E |----------------|----------------|----------------|----------------|
     See my hand is moving          touching all that's real

   B                B(add E)         B                A
e |------------0---|------------0---|------------0---|0---------------|
B |--------4-----4-|--------4-----4-|--------4-----4-|2---------------|
G |----4-----4-----|----4-----4-----|----4-----4-----|2---------------|
D |--4---4---------|--4---4---------|--4---4---------|2---------------|
A |2---------------|2---------------|2---------------|0---------------|
E |----------------|----------------|----------------|----------------|
   Once it stroked love's body       now it claws the past.  The scent of a 
[ Tab from: http://www.guitartabs.cc/tabs/g/genesis/dusk_tab_ver_2.html ]
   B                A                B
e |2---------------|0---------------|2---------------|
B |4---------------|2---------------|4---------------|
G |4---------------|2---------------|4---------------|
D |4---------------|2---------------|4---------------|
A |2---------------|0---------------|2---------------|
E |----------------|----------------|----------------|
   flower          The colours of the morning

   Em7              F#               Em7              F#
e |0---------------|2---------------|0---------------|2---------------|
B |3---------------|2---------------|3---------------|2---------------|
G |4---------------|3---------------|4---------------|3---------------|
D |2---------------|4---------------|2---------------|4---------------|
A |2---------------|4---------------|2---------------|4---------------|
E |0---------------|2---------------|0---------------|2---------------|
      Friends to believe in            Tears soon forgotten

   D                E                B                B
e |2---------------|0---------------|2---------------|2---------------|
B |3---------------|0---------------|4---------------|4---------------|
G |2---------------|1---------------|4---------------|4---------------|
D |0---------------|2---------------|4---------------|4---------------|
A |----------------|2---------------|2---------------|2---------------|
E |----------------|0---------------|----------------|----------------|
      See how the   rain    drives away,      another day.



If a leaf has fallen, does the tree lie broken?
And if we draw some water, does the well run dry?
The sigh of a mother, the screaming of lovers,
Like two angry tigers, they tear at each other,
See how for him lifetime's fears disappear.


Once a Jesus suffered, Heaven could not see him.
And now my ship is sinking, the captain stands alone.
A pawn on a chessboard, a false move by God will now destroy me.
But wait, on the horizon, a new dawn seems to be rising,
Never to recall this passerby, born to die.
Comments