General Surgery - Severe Catatonia In Pathology Chords & Tabs

 

Severe Catatonia In Pathology Chords & Tabs

General Surgery Chords & Tabs

Version: 1 Type: Tab 0 ratings
1 star 2 stars 3 stars 4 stars 5 stars
comments

Severe Catatonia In Pathology Tab

Author/Artist: general surgery
Title: severe catatonia in pathology
Album: necrology
Transcribed by: kernous
Email: kernous@relapsecult.com

tune down 2 & 1/2 steps.listen to album for timing.sorry no solos.
  riff1
-|--------------------------------------------------|
-|--------------------------------------------------|
-|--------------------------------------------------|
-|2-2-2-2-2-2-5553----5-6--2-2-2-2-2-2-5553---------|
-|2-2-2-2-2-2-5553----5-6--2-2-2-2-2-2-5553------5--|
-|0-0-0-0-0-0-3331----3-4--0-0-0-0-0-0-3331----4----|
[ Tab from: http://www.guitartabs.cc/tabs/g/general_surgery/severe_catatonia_in_pathology_tab.html ]
  riff2
-|-------------------------------------------------|
-|-------------------------------------------------|
-|------------------------5-6-------------------h--|
-|------------3-4---------5-6---------5-6-------8~-|
-|------------3-4---------3-4---------5-6-----h----|
-|000-000-000-1-2-000-000-----000-000-3-4-000-6~---|
  pm. ... ...     ... ...     ... ...     ...
  riff3
-|-----------------------------------------------------|
-|-----------------------------------------------------|
-|--------------------------5---6-------------------h--|
-|------------3---4---------5---6---------5---6-----8~-|
-|2-2-2-2-2-2-3-2-4-2-2-2-2-3-2-4-2-2-2-2-5-2-6-2-h----|
-|0-0-0-0-0-0-1-0-2-0-0-0-0---0---0-0-0-0-3-0-4-0-6~---|
  p m . . . .   .   . . . .   .   . . . .   .   .
  riff4
-|----------------------------------------------|
-|----------------------------------------------|
-|----------------------------------------------|
-|2-2-2-2-2-2-5553--5-6--2-2-2-2-2-2-5553-------|
-|2-2-2-2-2-2-5553--5-6--2-2-2-2-2-2-5553----5--|
-|0-0-0-0-0-0-3331--3-4--0-0-0-0-0-0-3331--4----|
  p m . . . .            . . . . . .
  bass riff                    fill1
-|----------------------------|-----------------|
-|----------------------------|-----------------|
-|----------------------------|-----------------|
-|----------------------------|-2--------14\----|
-|-------1--------------------|-2--------14\----|
-|0--3-4----2-1-0--0-2-3-5-2--|-0--------12\----|

  riff5
-|-------------------------------------------------|
-|-------------------------------------------------|
-|-------------------------------------------------|
-|------------------------------h------------------|
-|2--5-6-1~---2-4-5-7-4--2--5-6-1~-5-4-2-2-4-5-7-4-|
-|0--3-4------0-2-3-5-2--0--3-4----3-2-0-0-2-3-5-2-|

  riff6                                 fill2
-|-------------------------------------|-------------------------|
-|-------------------------------------|-------------------------|
-|--------------h----------------------|-------------------------|
-|2---4-5-6-----5~--2---4-5-6----------|-2-----------------------|
-|2---4-5-6-5~------2---4-5-6----------|-2-----------------------|
-|0---2-3-4---------0---2-3-4-7~--6t---|-0-----------------------|
                                            with whammy bar dives
  riff7              riff8
-|------------------|-------------------------------|
-|------------------|-------------------------------|
-|------------------|-------------------------------|
-|------------------|-------------------------------|
-|------------------|5555555533336534444444466661166|
-|000000331111334444|3333333311114312222222244441144|

  riff9                      riff10
-|--------------------------|------------------------------|
-|--------------------------|------------------------------|
-|--------------------------|------------------------------|
-|--------------------------|------------------------------|
-|5----3--6-3-4----6--3--6--|3----------------8--8-8/9-6\5-|
-|3----1--4-1-2----4--1--4--|1--1-1-1-1-1-1-1-6--6-6/7-4\3-|
                                p m . . . . .
 fill3
----
----
----
-2--
-2--
-0--
Song Structure:
riff1 x 4
riff2 x 2
riff3 x 4
riff4 x 2
fill1
riff5 x 2
riff6 x 2
fill2
riff7 x 4
riff8 x 2
riff9 x 2
riff10 x 6
riff6 x 2
fill3
riff7 x 4
fill3
Comments