Gbh - Slut Chords & Tabs

 

Slut Chords & Tabs

Gbh Chords & Tabs

Version: 1 Type: Tab 0 ratings
1 star 2 stars 3 stars 4 stars 5 stars
comments

Slut Tab

   
G.B.H - Slut
Album: City Baby Attacked by Rats

I couldn't get the very beginning of the intro, so I went for the 2nd part of it instead. 

Intro:
E|-------------------------------------|
B|-------------------------------------|
G|--5-2--5--2--5--2--777777777777777--|
D|--5--2--5--2-5--2--777777777777777--|
A|--3--0--3--0-3--0--555555555555555--|
E|-------------------------------------|
[ Tab from: http://www.guitartabs.cc/tabs/g/gbh/slut_tab.html ]
Verse:
E|------------------------------|
B|------------------------------|
G|--777777-777777---5555--5555--|
D|--777777-777777--55555-55555--|
A|--555550-555550--53330-53330--|
E|-----------------3-----3------|

Chorus:
E|---------------------------|
B|---------------------------|
G|------77757---------5------|
D|--7-7-77757--7-7-55555-----|
A|--7-7-55535--7-7-55535-----|
E|--5-5--------5-5-333-3-----|

Bridge:
E|-----------------|
B|-----------------|
G|--------33-55----|
D|--55-77-33-55----|
A|--55-77-11-33----|
E|--33-55----------|

Figure out the order YOURSELF, bitch!
Comments