Gbh - Passenger On The Menu Chords & Tabs

 

Passenger On The Menu Chords & Tabs

Gbh Chords & Tabs

Version: 1 Type: Tab 0 ratings
1 star 2 stars 3 stars 4 stars 5 stars
comments

Passenger On The Menu Tab

   
Band:G.B.H
Song:Passenger on the Menu
Tabbed By:Oppressor

1st part
e-------------------------------------|
b-------------------------------------|
g-------------------------------------|
d---13xx13xx13xx13xx8xx8-999-111111---|
a---11xx11xx11xx11xx6xx6-777--9-9-9---|
e-------------------------------------|

2nd part         3rd part
e-------------   -------------------------|
b-------------   -------------------------|
g-------------   -------------------------|
d---6-9-8-9---   ---6-9-8-9-11--11-9--9---|
a---4-7-6-7---   ---4-7-6-7--9---9-7--7---|
e-------------   -------------------------|
[ Tab from: http://www.guitartabs.cc/tabs/g/gbh/passenger_on_the_menu_tab.html ]
4th part
e---------------------------------------------------|
b---------------------------------------------------|
g---------------------------11h13-11h13-11h13-etc---|
d---6-9-8-9-11--11-9--9-13--------------------------|
a---4-7-6-7--9---9-7--7-11--------------------------|
e---------------------------------------------------|

End
e----------------------------------------------------------------|
b----------------------------------------------------------------|
g----------------------------------------11h13-11h13-11h13-etc---|
d---13xx13xx13xx13xx8xx8-999-111111-13---------------------------|
a---11xx11xx11xx11xx6xx6-777--9-9-9-11---------------------------|
e----------------------------------------------------------------|

Song Structure:
1st part: 10x         This song is probably G.B.H's slowest song but is
2nd part:  3x         still a good song.The tab is 100% im positive.The
3rd part:  1x         most important thing on playing this song is to keep
1st part:  6x         the military rhythm going.Any questions email me at
2nd part:  3x         mortified_dormition@yahoo.com.
4th part:  1x
1st part:  6x
2nd part:  3x
3rd part:  1x
1st part:  1x
Comments