Gazoontite - We Wanna Rock Chords & Tabs

 

We Wanna Rock Chords & Tabs

Gazoontite Chords & Tabs

Version: 1 Type: Tab 0 ratings
1 star 2 stars 3 stars 4 stars 5 stars
comments

We Wanna Rock Tab

   
Hey this is a great band fronm st.thomas. You can download their stuff at their website at www.gazoonite.cjb.net including this awesome rock song! You'll have to download the song to get to know the beats and time, but its worth it. any comments, bigbudge2000@hotmail.com

Intro:

   E       B    C/D   A
e--------------------------------------------------------
b--------------------------------------------------------
g--111----444---5/7--------------------------------------
d--222----444---5/7---7----------------------------------
a--222----222---3/5---7---*let it ring-------------------
e---------------------5----------------------------------


Verse 1
     E        B        G        E
e--------------------------------------------------------
b--------------------------------------------------------
g--111111---444444------------111111---------------------
d--222222---444444--555555----222222---------------------
a--222222---222222--555555----222222---------------------
e-------------------333333-------------------------------
     E        B       G        E
e--------------------------------------------------------
b--------------------------------------------------------
g--111111---444444------------111111---------------------
d--222222---444444--555555----222222---------------------
a--222222---222222--555555----222222---------------------
e-------------------333333-------------------------------
     E         B      G         A
e--------------------------------------------------------
b--------------------------------------------------------
g--111111---444444---------------------------------------
d--222222---444444--555555-----777777--------------------
a--222222---222222--555555-----777777--------------------
e-------------------333333-----555555--------------------
     E         B       G         E
e--------------------------------------------------------
b--------------------------------------------------------
g--111111---444444------------111111---------------------
d--222222---444444--555555----222222---------------------
a--222222---222222--555555----222222---------------------
e-------------------333333-------------------------------
     E        B        G        E
e--------------------------------------------------------
b--------------------------------------------------------
g--111111---444444------------111111---------------------
d--222222---444444--555555----222222---------------------
a--222222---222222--555555----222222---------------------
e-------------------333333-------------------------------

Chorus :
    B F# G G       C       D 
e--------------------------------------------------------
b--------------------------------------------------------
g---4------------55555--77777----------------------------
d---4-4-5-5555---55555--77777----------------------------
a---2-4-5-5555---33333--55555----------------------------
e-----2-3-3333-------------------------------------------
[ Tab from: http://www.guitartabs.cc/tabs/g/gazoontite/we_wanna_rock_tab.html ]
Verse 2
     E        B        G        E
e--------------------------------------------------------
b--------------------------------------------------------
g--111111---444444------------111111---------------------
d--222222---444444--555555----222222---------------------
a--222222---222222--555555----222222---------------------
e-------------------333333-------------------------------
     E        B       G        E
e--------------------------------------------------------
b--------------------------------------------------------
g--111111---444444------------111111---------------------
d--222222---444444--555555----222222---------------------
a--222222---222222--555555----222222---------------------
e-------------------333333-------------------------------
     E         B      G         A
e--------------------------------------------------------
b--------------------------------------------------------
g--111111---444444---------------------------------------
d--222222---444444--555555-----777777--------------------
a--222222---222222--555555-----777777--------------------
e-------------------333333-----555555--------------------
     E         B       G         E
e--------------------------------------------------------
b--------------------------------------------------------
g--111111---444444------------111111---------------------
d--222222---444444--555555----222222---------------------
a--222222---222222--555555----222222---------------------
e-------------------333333-------------------------------
     E        B        G        E
e--------------------------------------------------------
b--------------------------------------------------------
g--111111---444444------------111111---------------------
d--222222---444444--555555----222222---------------------
a--222222---222222--555555----222222---------------------
e-------------------333333-------------------------------

Chorus :
    B F# G G       C       D 
e--------------------------------------------------------
b--------------------------------------------------------
g---4------------55555--77777----------------------------
d---4-4-5-5555---55555--77777----------------------------
a---2-4-5-5555---33333--55555----------------------------
e-----2-3-3333-------------------------------------------

SOLO HERE
I dont quite no the solo, just figure it out on your own i guess, listen to the song, you'll figure it out. 

Chorus :
    B F# G G       C       D 
e--------------------------------------------------------
b--------------------------------------------------------
g---4------------55555--77777----------------------------
d---4-4-5-5555---55555--77777----------------------------
a---2-4-5-5555---33333--55555----------------------------
e-----2-3-3333-------------------------------------------

Lyrics:
Five men in a rockin band 
puttin on a show 
bringin down chaos 
wherever they go 
ain't gonna let nobody slow them down 
they deserve all the credit 
for rockin this town 

chorus:
Cuz we wanna rock 
wanna hear it up through the floor, 
ya we wanna rock 
gonna have ya screamin for more 
cuz we wanna rock 
ain't gonna never give up 
ya we wanna rock 
lets hear it for rock 

listen to your radio after the show 
gonna hear rock beat out everything today 
better listen carefully 
cuz it'll blow you away 
ain't gonna give up 
on rock these days 

chorus: 
Cuz we wanna rock 
wanna hear it up through the floor, 
ya we wanna rock 
gonna have ya screamin for more 
cuz we wanna rock 
ain't gonna never give up 
ya we wanna rock 
lets hear it for PJ 

**Solo**

chorus:
Cuz we wanna rock 
wanna hear it up through the floor, 
ya we wanna rock 
gonna have ya screamin for more 
cuz we wanna rock 
ain't gonna never give up 
ya we wanna rock 
lets hear it for rock 
Comments