Gavin Degraw - Crush Chords & Tabs

 

Crush Chords & Tabs

Gavin Degraw Chords & Tabs

Version: 1 Type: Tab 0 ratings
1 star 2 stars 3 stars 4 stars 5 stars
comments

Crush Tab

   
Gavin DeGraw - Crush
Tabbed by George P - grptertius@yahoo.com
Standard tuning; capo on 1st fret
-simple to learn; fun to play


Intro & Chorus:

     A      Bm sus4  D sus2     A

e----0--------0--------0--------0----|
B----3--------3--------3--------3----|
G----3--------4--------2--------3----| x2
D----3--------4--------0--------3----| 
A----0--------2--------0--------0----|
E----x--------x--------x--------x----|


Verse:

     A        Bm       D        A

e------------------------------------|
B------------------------------------|
G----6--------7--------7--------6----| x2
D----7--------9--------7--------7----|
A----7--------9--------5--------7----|
E----5--------7--------5--------5----|

"When my pass came in..."


Bridge:
[ Tab from: http://www.guitartabs.cc/tabs/g/gavin_degraw/crush_tab.html ]
e---------------------------------------------------------------|
B---------------------------------------------------------------|
G----------------------5--------4-----------------5--------4----|
D----7--6--5--4--------5--------4--------4--------5--------4----|
A----7--6--5--4--------3--------2--------4--------3--------2----|
E----5--4--3--2--------------------------2----------------------|

"There is a light..."


e---------------------------------------------------------|
B---------------------------------------------------------|
G-------------5--------4----------------------------------|
D----4--------5--------4--------4--4--4--4--4--4--4--4----|
A----4--------3--------2--------4--4--4--4--4--4--4--4----|
E----2--------------------------2--2--2--2--2--2--2--2----|


*Repeat Chorus*

*Repeat Verse*

*Repeat Bridge*

*Repeat Chorus*

*Repeat Bridge x2*

*Repeat Chorus x2*
Comments