Gates Of Ishtar - Burning Sky Chords & Tabs

 

Burning Sky Chords & Tabs

Gates Of Ishtar Chords & Tabs

Version: 1 Type: Tab 0 ratings
1 star 2 stars 3 stars 4 stars 5 stars
comments

Burning Sky Tab

                         GATES OF ISHTAR - THE BURNING SKY
                         From the Album AT DUSK AND FOREVER
                         Copyright 1998 Invasion Records

                         Version 1.0 - May 1999


Transcribed by: Zack Demianczyk(MTD)
email Zack at dio@nauticom.net, for questions or corrections

Visit my homepage Malignant Tablature Dominion at:
                http://www.angelfire.com/ak2/MalignantTabs/index.html

Check Out 's Web Page, With More Transcriptions On It:
               /

Check Out DEATH WARP, With More Transcriptions On It:
               http://tiger.towson.edu/~dalvis1


/     slide up
\     slide down
p     pull on
h     hammer on
~     vibrato
pm    .



Tuning: 1 Steps Down to D


 play 2 times
|------------------------------------------|
|------------------------------------------|
|------------------------------------------|
|-5---------5-----44-5----------5-----22-5-|
|-7---------7-----55-7----------7-----33-7-|
|---0000000---000------00000000---000------|


 play 2 times  (guitar 1)
|------------------------------------------|
|------------------------------------------|
|------------------------------------------|
|-5---------5-----44-5----------5-----22-5-|
|-7---------7-----55-7----------7-----33-7-|
|---0000000---000------00000000---000------|
| (guitar 2)                               |
|------------------------------------------|
|------------------------------------------|
|-4---------4-----22-4----------4-----00-4-|
|-5---------5-----44-5----------5-----22-5-|
|------------------------------------------|
|---0000000---000------00000000---000------|


 play 2 times
|-------------------------------------------------------|
|-------------------------------------------------------|
|-------------------------------------------------------|
|-----99999-----77777-----99999--99---------------------|
|-----77777-----55555-----77777----121212101010999------|
|-000-------000-------000--------------------------1010-|

 play 2 times
|------------------------------------------|
|------------------------------------------|
|------------------------------------------|
|-5---------5-----44-5----------5-----22-5-|
|-7---------7-----55-7----------7-----33-7-|
|---0000000---000------00000000---000------|

[ Tab from: http://www.guitartabs.cc/tabs/g/gates_of_ishtar/burning_sky_tab.html ]
 play 2 times  (guitar 1)
|------------------------------------------|
|------------------------------------------|
|------------------------------------------|
|-5---------5-----44-5----------5-----22-5-|
|-7---------7-----55-7----------7-----33-7-|
|---0000000---000------00000000---000------|
| (guitar 2)                               |
|------------------------------------------|
|------------------------------------------|
|-4---------4-----22-4----------4-----00-4-|
|-5---------5-----44-5----------5-----22-5-|
|------------------------------------------|
|---0000000---000------00000000---000------|


 play 4 times
|-------------------------------------------------------|
|-------------------------------------------------------|
|-------------------------------------------------------|
|-----99999-----77777-----99999--99---------------------|
|-----77777-----55555-----77777----121212101010999------|
|-000-------000-------000--------------------------1010-|

 play 2 times
|------------------------------------------|
|------------------------------------------|
|------------------------------------------|
|-5---------5-----44-5----------5-----22-5-|
|-7---------7-----55-7----------7-----33-7-|
|---0000000---000------00000000---000------|


 play 2 times  (guitar 1)
|------------------------------------------|
|------------------------------------------|
|------------------------------------------|
|-5---------5-----44-5----------5-----22-5-|
|-7---------7-----55-7----------7-----33-7-|
|---0000000---000------00000000---000------|
| (guitar 2)                               |
|------------------------------------------|
|------------------------------------------|
|-4---------4-----22-4----------4-----00-4-|
|-5---------5-----44-5----------5-----22-5-|
|------------------------------------------|
|---0000000---000------00000000---000------|


 play 4 times
|-------------------------------------------------------|
|-------------------------------------------------------|
|-------------------------------------------------------|
|-----99999-----77777-----99999--99---------------------|
|-----77777-----55555-----77777----121212101010999------|
|-000-------000-------000--------------------------1010-|


 play 2 times
|--------------------------------------|
|--------------------------------------|
|----------------------------4"--------|
|-5"-----4"5"--4"--4"5"----4"---5"4"---|
|-7"---------------5"7"-------------5"-|
|--------------------------------------|

 ending notes
|------------|
|------------|
|------------|
|-5"4"-----5-|
|-----5"---7-|
|------------|
Comments