Gasolin Kim Larsen - Johanna Chords & Tabs

 

Johanna Chords & Tabs

Gasolin Kim Larsen Chords & Tabs

Version: 1 Type: Chords 1 rating
1 star 2 stars 3 stars 4 stars 5 stars
comments

Johanna Chords

   
Gasolin & Kim Larsen – Johanna

Riff 0 - Kun i Intro
E-----------------------
B-----------------------
G-----------------------
D----7-8-9----7----9----
A--9--------------------
E-----------------------

Riff 1
E-----------------------
B-----------------------
G-----------------------
D----7-8-9--------------
A--9--------------------
E-----------------------

Riff 2
E-----------------------
B-----------------------
G--14^16-11-------------
D-----------14-12-------
A-----------------14----
E-----------------------

Riff 3
E-----------------------
B-----------------------
G--14^16-11------------
D-----------14p12----12-
A-----------------14----
E-----------------------

Intro:
Riff 0			  Riff 0
           Bm ---- A –--- Bm ----– A ---- 
			  Riff 1
           Bm ---- A –--- Bm ----– A ----


[ Tab from: http://www.guitartabs.cc/tabs/g/gasolin_kim_larsen/johanna_crd.html ]
		             Riff 1
Bm        A          Bm          A
Tag mig med til dit drømmeland
		      Riff 2
Bm        A          Bm            A
Der hvor man kan drømme
		          Riff 1		
Bm        A          Bm          A
Og tag med ud i verdens larm
		    Riff 3
Bm        A          Bm          A
Der hvor man kan larme

D                      A
Tag mig med til Johanna 
Em                 G                 D
Tag mig med, tag mig med, tag mig med
D		
Hvis det er der hvor man ikke, 
A		BmABmABm - A
bare skal passe sig selv

Tag mig ud på det store hav
Der hvor man kan svømme
Og tag mig op i den tynde luft
Der hvor man kan svæve

Tag mig med til Johanna
Tag mig med, tag mig med, tag mig med
Hvis det er der hvor man ikke bare skal passe sig selv

BmA 	11x

Tag mig med til Johanna
Tag mig med, tag mig med, tag mig med
Hvis det er der hvor man ikke bare skal passe sig selv

Tag mig ud i den grønne skov
Der hvor man kan spire
Og tag mig med ud til storbyens jag
Der hvor man kan jage



Tag mig med til Johanna
Tag mig med, tag mig med, tag mig med
Hvis det er der hvor man ikke bare skal passe sig selv

BmA 10x  
Slutter på en Bm.


Enjoy!
Nimzi =):-D
Comments