Gary Numan - Cars Chords & Tabs

 

Cars Chords & Tabs

Gary Numan Chords & Tabs

Version: 2 Type: Tab 0 ratings
1 star 2 stars 3 stars 4 stars 5 stars
comments

Cars Tab

This is me first tab, I think its rite i discovered it while trying to learn Layla unplugged,
Don't ask....


Intro:

e|---------------------|
B|---------------------|
G|---------------------|
D|-0-------------------|
A|---4-----0----0-0----|
E|------3--------------|

Main riff:

e|------------------|
B|------------------|
G|------------------|  x3
D|------------------|
A|-5--4----0---0-0--|
E|-------3----------|

Then do this:
e|---------------------------|
B|---------------------------|  x1
G|---------------------------|
D|---------------------------|
A|------2----------------2---|
E|3-------3------2---3-----3-|

Weird high interlude/ chorus/ the high bit/ Dum de dum dum dum dum dum de dum de dum 

e|-----------------------------|-------10---------13--12----------|
B|-----15------------12--13-12-|----------10----------------------|
G|-----------14----------------|----------------------------------|
D|-----------------------------|----------------------------------|
A|-17--------------------------|--12------------------------------|
E|-----------------------------|----------------------------------|
[ Tab from: http://www.guitartabs.cc/tabs/g/gary_numan/cars_tab_ver_2.html ]
e|-----------------------------|----------------------------------|
B|-----15-------12-13-12-------|-------------12--13-15------------|
G|--------14-------------------|----------------------------------|
D|-----------------------------|--12---12-------------------------|
A|-17--------------------------|----------------------------------|
E|-----------------------------|----------------------------------|

e|-----------------------------|-------10------------13-12--------|
B|------15------12-13-12-------|----------10----------------------|
G|---------14------------------|----------------------------------|
D|-----------------------------|----------------------------------|
A|--17-------------------------|---12-----------------------------|
E|-----------------------------|----------------------------------|

e|-----------------------------|----------------------10----------|
B|-----15-------12-13-12-------|-----------------10---------------|
G|---------14------------------|-------------12-------------------|
D|-----------------------------|--------12------------------------|
A|--17-------------------------|----------------------------------|
E|-----------------------------|----------------------------------|

Thats it Just keep repeating the riff over and over like most techno songs,
its boring and dosen't change. I bet u not a single person looks at this tab.
Rate it if u see it please, u don't even have to play it just rate it. 
Cheers!
Comments