Gary Moore - Teenage Idol Chords & Tabs

 

Teenage Idol Chords & Tabs

Gary Moore Chords & Tabs

Version: 1 Type: Tab 1 rating
1 star 2 stars 3 stars 4 stars 5 stars
comments

Teenage Idol Tab

   
================================================================================
         Title : Teenage Idol
        Artist : Gary Moore
         Album : Victims of the Future
Transcribed by : Robert Grant **WeWantMoore** 01-01-2005
================================================================================

h = hammer-on
p = pull-off
b = bend
r = bend release
/ = slide up/down
Pm = Pinch harmonic
~ = vibrato
v = Vibrato Bar Dips
x = Fret Hand Muting


Enjoy :) Need anyhelp or any corrections please mail me at robgrant@gmail.com

===============================================================================




   Ex.1
                    Pm-----|   ~~~~  ~~~~~~ Pm-----|                    Pm-----|   ~~~~  ~~~~
E||------------||---------------------|------------------------|--------------------------|--
B||------------||---------------------|------------------------|--------------------------|--
G||------------||:--------------------|------------------------|--------------------------|--
D||--x--------||:--------------------|------------------------|--------------------------|--
A||--x--------||---------------------|----------------5-------|--------------------------|--
E||--------0--||----3--4--0--5----5--|----4--5--6--7-------0--|----(0)--3--4--0--5----5--|--


  ______________________   _____________________
  |1. Pm-----|   	|  |2.~~~~ Pm-----|							
E|-----------------------||--------------------------||--
B|-----------------------||--------------------------||--
G|----------------------:||--------------------------||--
D|----------------------:||--------------------------||--
A|-----------------------||--------------------------||--
E|----4--5--6--7--3--0---||--(5)--4--5--6--7--3--0---||--


Ex.2
   A5

E|-------------5--------------5--------5----||--
B|--------5--------------5-------------5----||--
G|--7b------------7b-------------7b---------||--
D|------------------------------------------||--
A|------------------------------------------||--
E|------------------------------------------||--


Ex.3

   vol.swells < < <               < < <

E|----------------------|----------------------||--
B|--------6b----6b------|--------6b----6b------||--
G|--------5b----5b------|--------5b----5b------||--
D|----------------------|----------------------||--
A|----------------------|----------------------||--
E|----------------------|----------------------||--


Ex.4
														 ~~~~~~
E|-----------|--12h15p12---------17p12---------15p12---------17p12---------|--15p12---------17p12---------15b--15-----||--
B|----15b----|------------15p12---------15p12---------15p12---------15p12--|---------15p12---------15p12--------------||--
G|-----------|-------------------------------------------------------------|------------------------------------------||--
D|-----------|-------------------------------------------------------------|------------------------------------------||--
A|-----------|-------------------------------------------------------------|------------------------------------------||--
E|-----------|-------------------------------------------------------------|------------------------------------------||--

[ Tab from: http://www.guitartabs.cc/tabs/g/gary_moore/teenage_idol_tab.html ]
Ex.5
Guitar Solo
  
   E5
  												           ~~~~~~~~
E|---------------------------------------------------------------|------------------------------------------------|--
B|-------12-15p12------11--14p11------12--15p12-------11--14p11--|---------12--15p12-------11--14p11--15--15b-----|--
G|--14b-----------10b------------14b-------------13b-------------|--14b--------------13b--------------------------|--
D|---------------------------------------------------------------|------------------------------------------------|--
A|---------------------------------------------------------------|------------------------------------------------|--
E|---------------------------------------------------------------|------------------------------------------------|--

						E5
   ~~~~~~~~~~~
E|------------------15b--|---------(15)-----|--5p0--3p0------------------------------|--
B|--(15)------------15b--|---------(15)-----|-----------3p0--5p0--3p0--2p0-----------|--
G|-----------------------|-------------------|------------------------------4p0--2p0--|--
D|-----------------------|-------------------|----------------------------------------|--
A|-----------------------|-------------------|----------------------------------------|--
E|-----------------------|-------------------|----------------------------------------|--



					  ~~~~~~~~~~~~~~	
E|-------------------------------------|-------------------------|-------------------|--
B|-------------------------------------|-------------------------|-------------------|--
G|-------------------------------------|-------------------------|-------------------|--
D|----4p0--2p0--------------------2----|--(2)------(2)----2p0h2--|--------/(16)-----|--
A|--------------4p0--2p0---------------|-------------------------|-------------------|--
E|------------------------3b4----------|-------------------------|-------------------|--

  E5
    Pm-----|         ~~~~~~~~~~  Pm-----|                               ~~~~~~~~~~	
E|------------------------|--------------------|----------------------------|------------------------|--
B|------------------------|--------------------|----------------------------|------------------------|--
G|------------------------|--------------------|----------------------------|--------------------7b--|--
D|--------------5---------|---------------5----|--(5)--------(5)b------/7---|----(7)--6--7--8--9-----|--
A|-----------5-------7----|------7--5--7-------|----------------------------|------------------------|--
E|--5--6--7---------------|--------------------|----------------------------|------------------------|--


   E5

E|------------------------------------------------------|------------------------------------------------------|--
B|------------------------------------------------------|------------------------------------------------------|--
G|--x-----x------x-----x------x-----x------x-----x------|--x-----x------x-----x------x-----x------x-----x------|--
D|----x-----x------x-----x------x-----x------x-----x----|----x-----x------x-----x------x-----x------x-----x----|--
A|------x-----x------x-----x------x-----x------x-----x--|------x-----x------x-----x------x-----x------x-----x--|--
E|--3p2p0h3p2p0--3p2p0h3p2p0--3p2p0h3p2p0--3p2p0h3p2p0--|--3p2p0h3p2p0--3p2p0h3p2p0--3p2p0h3p2p0--3p2p0h3p2p0--|--
  
    *random Harmonics produced by right hand


E|------------------------------------------------------|-----------------------------------||--
B|------------------------------------------------------|-----------------------------------||--
G|--x-----x------x-----x------x-----x------x-----x------|--x-----x------x-----x--------/x--||--
D|----x-----x------x-----x------x-----x------x-----x----|----x-----x------x-----x------/x--||--
A|------x-----x------x-----x------x-----x------x-----x--|------x-----x------x-----x--x------||--
E|--3p2p0h3p2p0--3p2p0h3p2p0--3p2p0h3p2p0--3p2p0h3p2p0--|--3p2p0h3p2p0--3p2p0h3p2p0--0------||--





Comments