Gary Moore - Need Your Love So Bbad Chords & Tabs

 

Need Your Love So Bbad Chords & Tabs

Gary Moore Chords & Tabs

Version: 1 Type: Bass Tab 0 ratings
1 star 2 stars 3 stars 4 stars 5 stars
comments

Need Your Love So Bbad Bass Tab

   
Need Your Love So Bad.btab
Gary Moore
TablEdited by Poppamies
Tuning : E A D G 	Time Signature: 6/8

 |           |            |           |            |           |            
|------------------------|------------------------|------------------------|
|------------------------|------------------------|2-----------------------|
|------------------------|0-------------------4---|------------------------|
|------------------------|------------------------|------------------------|

 |           |            |           |            |           |            
|2-----------------------|------------------------|------------------------|
|------------------------|2-----------------------|0-----------------------|
|--------------------4---|------------------------|--------------------0---|
|------------------------|------------------------|------------------------|

 |           |            |           |            |           |            
|------------------------|------------------------|------------------------|
|0-----------------------|1-----------------------|1-----------------------|
|------------------------|------------------------|------------------------|
|------------------------|------------------------|------------------------|

 |           |            |           |            |           |            
|------------------------|------------------------|------------------------|
|----------------2---3---|4-----------------------|------------------------|
|0-----------------------|--------------------4---|2-----------------------|
|------------------------|------------------------|------------------------|

 |           |            |           |            |           |            
|------------------------|------------------------|------------------------|
|2-----------------------|------------------------|0-----------------------|
|------------------------|0-------------------4---|------------------------|
|------------------------|------------------------|------------------------|

 |           |            |           |            |           |            
|------------------------|------------------------|------------------------|
|------------------------|------------------------|------------------------|
|0-------------------4---|------------------------|0-------------------4---|
|------------------------|0-------------------4---|------------------------|

 |           |            |           |            |           |            
|------------------------|2-----------------------|------------------------|
|2-----------------------|------------------------|2-----------------------|
|------------------------|--------------------4---|------------------------|
|------------------------|------------------------|------------------------|

 |           |            |           |            |           |            
|------------------------|------------------------|------------------------|
|0-----------------------|0-----------------------|1-----------------------|
|--------------------0---|------------------------|------------------------|
|------------------------|------------------------|------------------------|

 |           |            |           |            |           |            
|------------------------|------------------------|------------------------|
|1-----------------------|----------------2---3---|4-----------------------|
|------------------------|0-----------------------|--------------------4---|
|------------------------|------------------------|------------------------|

 |           |            |           |            |           |            
|------------------------|------------------------|------------------------|
|------------------------|2-----------------------|------------------------|
|2-----------------------|------------------------|0-------------------4---|
|------------------------|------------------------|------------------------|

 |           |            |           |            |           |            
|------------------------|------------------------|------------------------|
|0-----------------------|------------------------|------------------------|
|------------------------|0-------------------4---|------------------------|
|------------------------|------------------------|0-------------------4---|
[ Tab from: http://www.guitartabs.cc/tabs/g/gary_moore/need_your_love_so_bbad_btab.html ]
 |           |            |           |            |           |            
|------------------------|------------------------|2-----------------------|
|------------------------|2-----------------------|------------------------|
|0-------------------4---|------------------------|--------------------4---|
|------------------------|------------------------|------------------------|

 |           |            |           |            |           |            
|------------------------|------------------------|------------------------|
|2-----------------------|0-----------------------|0-----------------------|
|------------------------|--------------------0---|------------------------|
|------------------------|------------------------|------------------------|

 |           |            |           |            |           |            
|------------------------|------------------------|------------------------|
|1-----------------------|1-----------------------|----------------2---3---|
|------------------------|------------------------|0-----------------------|
|------------------------|------------------------|------------------------|

 |           |            |           |            |           |            
|------------------------|------------------------|------------------------|
|4-----------------------|------------------------|2-----------------------|
|--------------------4---|2-----------------------|------------------------|
|------------------------|------------------------|--------------------4---|

 |           |            |           |            |           |            
|------------------------|------------------------|------------------------|
|------------------------|0-----------------------|------------------------|
|0-------------------4---|------------------------|0-----------------------|
|------------------------|--------------------2---|--------------------0---|

 |           |            |           |            |           |            
|------------------------|------------------------|------------------------|
|------------------------|0-----------------------|0-------------------0---|
|0-------------------4---|--------------------0---|------------------------|
|------------------------|------------------------|------------------------|

 |           |            |           |            |           |            
|------------------------|------------------------|------------------------|
|1-----------------------|1-----------------------|------------------------|
|------------------------|------------------------|0-------------------4---|
|------------------------|------------------------|------------------------|

 |           |            |           |            |           |            
|------------------------|------------------------|------------------------|
|------------------------|------------------------|------------------------|
|------------------------|0-----------------------|0-------------------0---|
|0-------------------4---|--------------------0---|------------------------|

 |           |            |           |            |           |            
|------------------------|------------------------|------------------------|
|------------------------|------------------------|------------------------|
|2-----------------------|2-----------------------|2-----------------------|
|--------------------2---|--------------------2---|--------------------2---|

 |           |            |           |            |           |            
|------------------------|------------------------|------------------------|
|------------------------|------------------------|------------------------|
|2-------------------2---|------------------------|------------------------|
|----------------2-------|0-------0---0-------0---|1-------1---1-------1---|

 |           |            |           |            |           |            
|------------------------|------------------------|------------------------|
|------------------------|------------------------|------------------------|
|------------------------|------------------------|0-------------------4---|
|0---0---0---0---0---0---|0-----------------------|------------------------|

 |           |            |           |            |           |            
|------------------------|2-----------------------|------------------------|
|2-----------------------|------------------------|2-----------------------|
|------------------------|--------------------4---|-------and so on..------|
|------------------------|------------------------|------------------------|

Transcribe! 6.0 transcription http://www.seventhstring.demon.co.uk/
Created with TablEdit http://www.tabledit.com/
http://www.geocities.com/jani_bjorklund/janis.html
Comments