Gary Moore - I Had A Dream Chords & Tabs

 

I Had A Dream Chords & Tabs

Gary Moore Chords & Tabs

Version: 1 Type: Tab 0 ratings
1 star 2 stars 3 stars 4 stars 5 stars
comments

I Had A Dream Tab

   
-------------------------------------------------------------------------------
                                                  I HAD A DREAM - Gary Moore
-------------------------------------------------------------------------------
Tabbed by:predator0010  


Tuning:Standard

intro

e|-----0-----0---0-----0----------------------------7------------------------|
B|-----5h7--7/9--7h9p7-5---4-b4-2h4p2---4-----------7------------------------|
G|-----------------------------------2--4-----------8------------------------|
D|--------------------------------------4---------6-9------------------------|
A|----------------------------0-------------4/6--9--9------------------------|
E|-----------0--------------------------------------7------------------------|


E       B           C#m         G#m
I Had A Dream, That You Were My Queen

    A          B            E      A   E     B
And I Was Your King, In The Shadows Of Love


E           B       C#m            G#m
Noone Could See How Close We Would Be,

    A               B          E      A  E    E
Two Lovers, You And Me, In The Shadow Of Love


C#m              B
I Was A Fool To Play By The Rules,

    A               G#
And I Was A Fool To Let You Go

C#m                          B
All Through the Night, As I Held You So Tight,

         A                           G#
'Til The First Morning Light, But My Eyes Were Closed


E       B           C#m         G#m
I Had A Dream, That You Were My Queen

    A          B            E      A   E     B
And I Was Your King, In The Shadows Of Love

Solo

e|---------------------------------------------------------------------------|
B|---------------------------------------------------------------------------|
G|-b11-------9-11-b11 b11r----9-8-b8--------6-8-b8-b8r---4-6-b6r-------------|
D|---------------------------------------------------------------------------|
A|---------------------------------------------------------------------------|
E|---------------------------------------------------------------------------|

e|-----------------------------------------------b14---12-14-b14-b14--14-14--|
B|----------------------------------5---5-------12----12---------------------|
G|-b11-----b11-b11r-11---9-b11r9----4h6-4------------------------------------|
D|----------------------11---------------7-4/6-------------------------------|
A|---------------------------------------------------------------------------|
E|---------------------------------------------------------------------------|

e|---------------------------------------------------------------------------|
B|-16-b16r--16--------------14-14h16-14h16p14--14----------------------------|
G|-----------18----16--13-16-----------------16--16-13-----------------------|
D|-----------/18--14---------------------------------16-14--14h16-b16r-14--14|
A|---------------------------------------------------------16------------16--|
E|---------------------------------------------------------------------------|

e|----------9----------------------------------------------b19--19-----------|
B|--------12-------------------------------------4------17-------b19---------|
G|-b11--b11--b11r--b6-9-b8---------------------6-4---------------------------|
D|---------------------------7p5--------------6--4---------------------------|
A|------------------------------h7---7-7----/7-------------------------------|
E|---------------------------------/9----------------------------------------|
[ Tab from: http://www.guitartabs.cc/tabs/g/gary_moore/i_had_a_dream_tab.html ]
e|-17------------------------------------------------------------------------|
B|---b19-b19r-19----16-16h17-19----b16--b14--b12-12r-9---9h12p9--------------|
G|-----------------------------------------------------------h11-b11-b11-----|
D|---------------------------------------------------------------------------|
A|---------------------------------------------------------------------------|
E|---------------------------------------------------------------------------|

e|--12-b14-r14-12--------12--------------------------------------------------|
B|-14-----------\14-----12-15-12---------------------------------------------|
G|--------------------b14------b14p12---12-----------------------------------|
D|----------------------------------14---h14---------------------------------|
A|-------------------------------------------\b12--10-------7-b9-b9r-7-7-----|
E|--------------------------------------------------12---7h9----------9------|

e|---0---------7---------12-------12-----------------------------------------|
B|----0--------7--------12-b15---12-15p12--12---b14-b14-b14-12-14------------|
G|-----1-------8------b14------b14------b14----------------------13----------|
D|-----2-------9-------------------------------------------------------------|
A|-------------9-------------------------------------------------------------|
E|-0-----/15---7-------------------------------------------------------------|

e|-------------------------16-19-b19-19-17-16--16h19-16h19p16-16-------------|
B|-12-14-b14-12-14--12-14--------------------b19------------19--19-18-16--16-|
G|----------------13----------------------------------------------------18---|
D|-------------------------------------------------------------------------18|
A|---------------------------------------------------------------------------|
E|---------------------------------------------------------------------------|

e|-------------------------------???-----------------------------------------|
B|-16h18p16-b18-18-16--16----------------------------------------------------|
G|-------------------18------b18-18-16h18p16--16-----------------------------|
D|-----------------------18-----------------18--18-16h18p16--16--------------|
A|---------------------------------------------------------18---\18----------|
E|---------------------------------------------------------------\18---------|

e|---------------------------------------------------------------------------|
B|---------------12-b14-12-12--15-17-19b-19b-19-17-15-----15-----------------|
G|---9-b11r-9--b11-----------------------------------16-16-------------------|
D|-11------------------------------------------------------------------------|
A|---------------------------------------------------------------------------|
E|---------------------------------------------------------------------------|

e|----12-----------12----12--------12---------------------19-b19-b19r-19-----|
B|---12-b15-----b15-b15---15-12---12-15-12-------------b20-------------------|
G|-b14--------------------------b14-------b14r-12-12-------------------------|
D|-----------------------------------------------14--------------------------|
A|---------------------------------------------------------------------------|
E|---------------------------------------------------------------------------|

e|-17-17/19------------------------------------------------------------------|
B|--------b19---17-b21-21----16-------b17-b17r-17---17-19-b21----------------|
G|----------------------------16-13-------------------------b18--------------|
D|---------------------------------------------------------------------------|
A|---------------------------------------------------------------------------|
E|---------------------------------------------------------------------------|

e|---------------------12----12----------------------------------------------|
B|--14-17-b19r-17------12h14-12----------------12b---------------------------|
G|-----------------------------14--11h13-11----11b---------------------------|
D|-----------------------------------------14--------------------------------|
A|---------------------------------------------------------------------------|
E|---------------------------------------------------------------------------|


************************************

| /   slide up
| \   slide down
| h   hammer-on
| p   pull-off
| B   Bend
| r   Release bend

************************************
Comments