Gary Moore - As The Years Go Passing By Chords & Tabs

 

As The Years Go Passing By Chords & Tabs

Gary Moore Chords & Tabs

Version: 1 Type: Tab 0 ratings
1 star 2 stars 3 stars 4 stars 5 stars
comments

As The Years Go Passing By Tab

Artist    ~ Gary Moore
Song      ~ As the years go passing by
Tabbed by ~ Terry Sims (Masterofdarknes)
Email     ~ Floyd_Fan89@teenspot.com


Intro


|--------------------11-13-|-13b15===(13)-(13)r-----------|
|-----------------13-------|------------------------------|
|--------------------------|------------------------------|
|--------------------------|------------------------------|
|--------------------------|------------------------------|
|--------------------------|------------------------------|


  
|---13-11------------11------------8-8-----------------|
|---------13-13-(13)--------------11-8-----------------|
|--------------------------------------10b12-(10)-10---|
|------------------------------------------------------|
|------------------------------------------------------|
|------------------------------------------------------|


|---------------------------------------------------|
|-----------------8---------------------------------|
|-8-10-10b12-(10)---10------------------------------|
|----------------------10-(10)-10-(10)--(10)--------|
|---------------------------------------------------|
|---------------------------------------------------|


|-------------------------------------||
|-------------------------------------||
|-------------------------------------||
|---8---------------------------------||
|-----10-9-8-5-8-8-10---6-(6)---------||
|-------------------------------------||


|-------------------------------------------------|
|-------------------------------------------------|
|----------------10b11==(10)r(10)p8----------8----|
|-----------10----------------------10-10-10------|
|-------------------------------------------------|
|-------------------------------------------------|

[ Tab from: http://www.guitartabs.cc/tabs/g/gary_moore/as_the_years_go_passing_by_tab.html ]
|-----------------------------------------------------|
|-----------11----------------------------------------|
|--------------10b11-(10)-10-8-10-10b12-(10)----------|
|--------------------------------------------10-(10)--|
|-----------------------------------------------------|
|-----------------------------------------------------|


|--------------|-8-11-8-(8)-(8)---------|
|--------------|------------------------|
|--------------|------------------------|
|--------------|------------------------|
|--------------|------------------------|
|--------------|------------------------|


|------------------------------------|
|----------------11-(11)-------------|
|------------------------10b12==(10)r|
|------------------------------------|
|------------------------------------|
|------------------------------------|


|-------------------------------------------------|------|
|-------------------------------------------------|------|
|-(10)-8-10-10b12==(10)-(10)---(10)r-----10-8-----|------|
|---------------------------------------------10--|------|
|-------------------------------------------------|------|
|-------------------------------------------------|------|


|-----------------------------------------|--------------------------|
|-----------------------------------------|------------11b13==(11)---|
|-10b11==(10)r(10)-8----------------------|--------------------------|
|--------------------10-10-(10)-----------|--------------------------|
|-----------------------------------------|--------------------------|
|-----------------------------------------|--------------------------|


|---------------------------------------------------------------|
|-(11)r(11)-8---------------------------------------------------|
|-------------10-10b11==(10)r(10)-8------------8h10-8--(8)------|
|-----------------------------------10-10-(10)------------------|
|---------------------------------------------------------------|
|---------------------------------------------------------------|
Comments